» » »

Bombay Bicycle Club, Evening Morning Bass tabs (ver.1)

Artists:  A B C D E F G H I J K L M N O P Q R S T U V W X Y Z # 

Evening Morning Bass tabs (ver.1)

Bombay Bicycle Club Tabs
Rating:
0/5 (0 votes)
Evening Morning lessons Tabs too difficult? Try these video lessons and learn fast
                Bombay Bicycle Club - Evening Morning Bass Tab

Hi my first tab, its not perfectly exact,
but it sounds fine when played with the original,
Listen for timing.


Intro: 
(bass straight in)
G|-----------------------------------35/--|
D|---------------------------------5------|
A|--6666666666666868\3333333333333--------|
E|----------------------------------------| x4

OR: 

You could play just straight notes:
G|--------------------------------------|
D|--------------------------------------|
A|--6666666666666666\3333333333333333/--|
E|--------------------------------------| x4


Bass solo/first verse:
G|--------------------35--|
D|------------------5-----|
A|--66666868/33333--------|
E|------------------------|  x6


Break: 'I am ready to owe you anything'

Chorus:
G|----------------535---------------535--|
D|--------10---------------810-----------|
A|--66668----3333-----6666-----3333------|
E|---------------------------------------| x3

Then:
G|----------------535--|
D|--------10-----------|
A|--66668----3333------|
E|---------------------| x1

Same as intro part:
G|-----------------------------------35/--|
D|---------------------------------5------|
A|--6666666666666868\3333333333333--------|
E|----------------------------------------| x4

Bass solo/ second verse:
G|--------------------35--|
D|------------------5-----|
A|--66666868/33333--------|
E|------------------------|  x6

Break: 'I am ready to owe you anything'

Chorus: (Note changes to first chorus)
G|-------535----------|
D|----------------810-|
A|--3333-----6666-----|
E|--------------------| x2

Then:
G|-------535-----------|
D|-----------------10--|
A|--3333-----66668-----|
E|---------------------| x1

G|---------------|
D|---------------|
A|--6----3-------|
E|---------------| X4

Pause.

Outro:
G|-----------------------------------35/--|
D|---------------------------------5------|
A|--6666666666666868\3333333333333--------|
E|----------------------------------------| x4


| /  slide up
| \  slide down
            
Submit corrections

comments powered by Disqus
↑ Back to top | Bombay Bicycle Club Bass for Evening Morning. Lyrics for acoustic guitar and electric guitar. Tablatures and chords are parodies/interpretations of the original songs. You may use it for private study, scholarship, research or language learning purposes only