» » »

Dust On The Ground Bass tabs (ver.1)

Artists:  A B C D E F G H I J K L M N O P Q R S T U V W X Y Z # 

Dust On The Ground Bass tabs (ver.1)

Bombay Bicycle Club
Rating:
0/5 (0 votes)

Tabs too difficult? Try these video lessons and learn fast.
                

1 = G     3 = A  / - Standard Tuning
2 = D     4 = E /

Start at 00:47

1:---------------|----------------|---------------|---------------|
2:---------------|----------------|2-2-2-2-2-2-2-2|2-2-2-2-2-2-2-2|
3:---------------|---------3-3-3-3|---------------|---------------|
4:3-3-3-3-3-3-3-3|-3-3-3-3--------|---------------|---------------|

1:0-0-0-0-0-0-0-0|0-0-0-0-------|---------------|---------------|
2:---------------|--------------|2-2-2-2-2-2-2-2|2-2-2-2-2-2-2-2|
3:---------------|-------3-3-3-3|---------------|---------------|
4:---------------|--------------|---------------|---------------|

at 1:30

1:---------------| X4 1:---------------| X4
2:---------------|    2:---------------|
3:3-3-3-3-3-3-3-3|    3:---------------|
4:---------------|    4:3-3-3-3-3-3-3-3|

at 2:00

1:---------------|---------------|---------------|---------------|
2:---------------|---------------|2-2-2-2-2-2-2-2|2-2-2-2-2-0-2-0|
3:3-3-3-3-3-3-3-3|3-3-3-3-3-3-3-3|---------------|---------------|
4:---------------|---------------|---------------|---------------|

at 2:06

1:---------------|X4
2:---------------|
3:---------------|
4:3-3-3-3-3-3-3-3|


1:---------------|---------------|
2:---------------|---------------|
3:---------------|--------3-3-3-3|
4:3-3-3-3-3-3-3-3|3-3-3-3--------|

at 2:14

1:---------------|----------------|---------------|---------------|
2:---------------|----------------|2-2-2-2-2-2-2-2|2-2-2-2-2-2-2-2|
3:---------------|---------3-3-3-3|---------------|---------------|
4:3-3-3-3-3-3-3-3|-3-3-3-3--------|---------------|---------------|

at 2:42

1:---------------| X4 1:---------------| X4
2:---------------|    2:---------------|
3:3-3-3-3-3-3-3-3|    3:---------------|
4:---------------|    4:3-3-3-3-3-3-3-3|

at 3:11

1:---------------|---------------|---------------|---------------|
2:---------------|---------------|2-2-2-2-2-2-2-2|2-2-2-2-2-2-2-2|
3:3-3-3-3-3-3-3-3|3-3-3-3-3-3-3-3|---------------|---------------|
4:---------------|---------------|---------------|---------------|

1:---------------| X4
2:---------------|
3:---------------|
4:3-3-3-3-3-3-3-3|

at 3:25

1:---------------|---------------|---------------|---------------|
2:---------------|---------------|2-2-2-2-2-2-2-2|2-2-2-2-2-0-2-0|
3:3-3-3-3-3-3-3-3|3-3-3-3-3-3-3-3|---------------|---------------|
4:---------------|---------------|---------------|---------------|

1:---------------| X2
2:---------------|
3:---------------|
4:3-3-3-3-3-3-3-3|

at 3:36

1:---------------| X2 1:---------------| X2 1:---------------| X6
2:---------------|    2:---------------|    2:---------------|
3:3-3-3-3-3-3-3-3|    3:---------------|    3:3-3-3-3-3-3-3-3|
4:---------------|    4:3-3-3-3-3-3-3-3|    4:---------------|

That's it...

This is only the bass line... I didn't write the structure...

I did it really fast so somepart can be wrong sorry... Also i ain't a bass player...

Hope you like it, please comment and rate!


Edit: I did it for a request... Didn't saw actually that the bass was already tabbed on 
pro... I'll make sure no one as done it before tabbing another tabs it's just a waste of time...
            
Tabs too difficult? Try these video lessons and learn fast.




comments powered by Disqus
↑ Back to top | Tablatures and chords are parodies/interpretations of the original songs. You may use it for private study, scholarship, research or language learning purposes only