» » »

Bolt Thrower, Zeroed Bass tabs (ver.1)

Artists:  A B C D E F G H I J K L M N O P Q R S T U V W X Y Z # 

Zeroed Bass tabs (ver.1)

Bolt Thrower Tabs
Rating:
0/5 (0 votes)
Zeroed lessons Tabs too difficult? Try these video lessons and learn fast
                tune down

E ||------||------------------------|------------------|-----------------------|
B ||------||*-----------------------|------------------|-----------------------|
F#||------||*---------------4----3--|------------------|---------------4----3--|
C#||------||---2----0--2------------|------------------|--2----0--2------------|


                                                                   
-------------------||-------------------||------------------------|
------------------*||-------------------||*-----------------------|
------------------*||--3----------------||*---------------4----3--|
-------------------||-------------------||---2----0--2------------|


                                                                
------------------|-----------------------|-------------------||
------------------|-----------------------|------------------*||
------------------|---------------4----3--|------------------*||
------------------|--2----0--2------------|-------------------||


                                                                 
-------------------||------------------------|------------------|
-------------------||*-----------------------|------------------|
--3----------------||*---------------4----3--|------------------|
-------------------||---2----0--2------------|------------------|


                                                                 
-----------------------|-------------------||-------------------|
-----------------------|------------------*||-------------------|
---------------4----3--|------------------*||--3----------------|
--2----0--2------------|-------------------||-------------------|


                                                                     
|------------------------|------------------|-----------------------|
|*-----------------------|------------------|-----------------------|
|*---------------4----3--|------------------|---------------4----3--|
|---2----0--2------------|------------------|--2----0--2------------|


                                                               
-------------------||-------------------||--------------------|
------------------*||-------------------||*-------------------|
------------------*||--3----------------||*-------------------|
-------------------||-------------------||---2----------------|


                                                                
--------------------|-------------------|---------------------||
--------------------|-------------------|--------------------*||
--------------------|-------------------|--------------------*||
----------3----6----|--2----------------|----------5----3-----||


                                                                              
---------------------||---------------------------|--------------------------|
---------------------||*--------------------------|--------------------------|
---------------------||*--------------------------|--------------------------|
--2--------5----3----||---2--2--2--2--2--2--2--2--|--2--2--2--2--3--3--3--3--|


                                                        
--------------------------|---------------------------||
--------------------------|--------------------------*||
--------------------------|--------------------------*||
--2--2--2--2--2--2--2--2--|--2--2--2--2--5--5--5--5---||


                                                          
---------------------------||---------------------------||
--------------------------*||--------------------------*||
--------------------------*||--------------------------*||
--2--2--2--2--5--5--5--5---||--2--2--2--2--5--5--5--5---||


                                                                      
--------------------------||--------------------|--------------------|
--------------------------||*-------------------|--------------------|
--------------------------||*-------------------|--------------------|
--2--2--2--2--5--5--5--5--||---2----------------|----------3----6----|


                                                               
-------------------|---------------------||-------------------|
-------------------|--------------------*||-------------------|
-------------------|--------------------*||-------------------|
--2----------------|----------5----3-----||--2----------------|


                                                                  
---------------------||-------------------|---------------------||
--------------------*||-------------------|--------------------*||
--------------------*||-------------------|--------------------*||
----------5----3-----||--2----------------|----------5----3-----||


                                                                      
-------------------|--------------------||---------------------------|
-------------------|--------------------||*--------------------------|
-------------------|--------------------||*--------------------------|
--2----------------|----------5----3----||---2--2--2--2--2--2--2--0--|


                                                      
--------------------------|--------------------------|
--------------------------|--------------------------|
--------------------------|--------------------------|
--0--2--3--0--3--2--0--3--|--2--2--2--2--2--2--2--0--|


                                                        
---------------------------||--------------------------|
--------------------------*||--------------------------|
--------------------------*||--------------------------|
--0--2--3--0--3--2--0--3---||--0--2--3--0--3--2--0--3--|


                                                        
|---------------------------|--------------------------|
|*--------------------------|--------------------------|
|*--------------------------|--------------------------|
|---2--2--2--2--2--2--2--0--|--0--2--3--0--3--2--0--3--|


                                                        
--------------------------|---------------------------||
--------------------------|--------------------------*||
--------------------------|--------------------------*||
--2--2--2--2--2--2--2--0--|--0--2--3--0--3--2--0--3---||


                                                                      
--------------------------||--------------------|--------------------|
--------------------------||*-------------------|--------------------|
--------------------------||*-------------------|--------------------|
--0--2--3--0--3--2--0--3--||---2----------------|----------3----6----|


                                                               
-------------------|---------------------||-------------------|
-------------------|--------------------*||-------------------|
-------------------|--------------------*||-------------------|
--2----------------|----------5----3-----||--2----------------|


                                                                  
---------------------||-------------------|---------------------||
--------------------*||-------------------|--------------------*||
--------------------*||-------------------|--------------------*||
----------5----3-----||--2----------------|----------5----3-----||


                                                                      
-------------------|--------------------||---------------------------|
-------------------|--------------------||*--------------------------|
-------------------|--------------------||*--------------------------|
--2----------------|----------5----3----||---2--2--2--2--2--2--2--0--|


                                                      
--------------------------|--------------------------|
--------------------------|--------------------------|
--------------------------|--------------------------|
--0--2--3--0--3--2--0--3--|--2--2--2--2--2--2--2--0--|


                                                          
---------------------------||---------------------------||
--------------------------*||--------------------------*||
--------------------------*||--------------------------*||
--0--2--3--0--3--2--0--3---||--0--2--3--0--3--2--0--3---||


                                                        
---------------------------||--------------------------|
--------------------------*||--------------------------|
--------------------------*||--------------------------|
--0--2--3--0--3--2--0--3---||--0--2--3--0--3--2--0--3--|


                                                                        
|-------------------------|--------------------||---------------------||
|*------------------------|-------------------*||--------------------*||
|*------------------------|-------------------*||--------------------*||
|---3--2--0--3----3----2--|----------3---------||--2--------3---------||


                                                                       
---------------------||--------------------||-------------------------|
--------------------*||--------------------||*------------------------|
--------------------*||--------------------||*------------------------|
--2--------3---------||--2--------3--------||---3--2--0--3----3----2--|


                                                    
--------------------------|------------------------|
----5--4--2-----2---------|------------------------|
-------------4-----4/---0-|------------------------|
--------------------------|--3--2--0--3----3----2--|


                                                           
---------------------------||----------------------------||
----5--4--2-----2---------*||-----5--4--2-----2---------*||
-------------4-----4/---0-*||--------------4-----4/---0-*||
---------------------------||--2-------------------------||


                                                          
----------------------------||---------------------------|
-----5--4--2-----2---------*||-----5--4--2-----2---------|
--------------4-----4/---0-*||--------------4-----4/---0-|
--2-------------------------||--2------------------------|


                                                                
|---------------------|-------------------|--------------------|
|*--------------------|-------------------|--------------------|
|*--3-----------------|-------------------|--1-----------------|
|------------------3--|----2--------------|-----------------3--|


                                                                  
--------------------||--------------------||---------------------|
-------------------*||--------------------||*--------------------|
-------------------*||--------------------||*--3-----------------|
----2---------------||--3--2--------------||------------------3--|


                                                               
-------------------|--------------------|--------------------||
-------------------|--------------------|-------------------*||
-------------------|--1-----------------|-------------------*||
----2--------------|-----------------3--|----2---------------||


                                                                
--------------------||---------------------|-------------------|
--------------------||*--------------------|-------------------|
--------------------||*--3-----------------|-------------------|
--3--2--------------||------------------3--|----2--------------|


                                                                
--------------------|--------------------||--------------------|
--------------------|-------------------*||--------------------|
--1-----------------|-------------------*||--------------------|
-----------------3--|----2---------------||--3--2--------------|


                                                                      
--------------------|-------------------||---------------------------|
--------------------|-------------------||*--------------------------|
--1-----------------|-------------------||*--------------------------|
-----------------3--|----2--------------||---3--3--3--3--0--0--0--2--|


                                                      
--------------------------|--------------------------|
--------------------------|--------------------------|
--------------------------|--------------------------|
--2--2--2--2--2--2--2--2--|--3--3--3--3--6--3--6--2--|


                                                        
---------------------------||--------------------------|
--------------------------*||--------------------------|
--------------------------*||--------------------------|
--2--2--2--2--2--2--2--2---||--2--2--2--2--2--2--2--2--|


                                                      
--------------------------|--------------------------|
--------------------------|--------------------------|
--------------------------|--------------------------|
--3--3--3--3--0--0--0--2--|--2--2--2--2--2--2--2--2--|


                                                      
--------------------------|--------------------------|
--------------------------|--------------------------|
--------------------------|--------------------------|
--3--3--3--3--6--3--6--2--|--2--2--2--2--2--2--2--2--|


                                                      
--------------------------|--------------------------|
--------------------------|--------------------------|
--------------------------|--------------------------|
--3--3--3--3--0--0--0--2--|--2--2--2--2--2--2--2--2--|


                                                      
--------------------------|--------------------------|
--------------------------|--------------------------|
--------------------------|--------------------------|
--3--3--3--3--6--3--6--2--|--2--2--2--2--2--2--2--2--|


                                                      
--------------------------|--------------------------|
--------------------------|--------------------------|
--------------------------|--------------------------|
--3--3--3--3--0--0--0--2--|--2--2--2--2--2--2--2--2--|


                                                      
--------------------------|--------------------------|
--------------------------|--------------------------|
--------------------------|--------------------------|
--3--3--3--3--6--3--6--2--|--2--2--2--2--2--2--2--2--|


                                                      
--------------------------|--------------------------|
--------------------------|--------------------------|
--------------------------|--------------------------|
--3--3--3--3--0--0--0--2--|--2--2--2--2--2--2--2--2--|


                                                      
--------------------------|--------------------------|
--------------------------|--------------------------|
--------------------------|--------------------------|
--3--3--3--3--6--3--6--2--|--2--2--2--2--2--2--2--2--|


                                                        
|---------------------------|--------------------------|
|*--------------------------|--------------------------|
|*--------------------------|--------------------------|
|---3--3--3--3--0--0--0--2--|--2--2--2--2--2--2--2--2--|


                                                        
--------------------------|---------------------------||
--------------------------|--------------------------*||
--------------------------|--------------------------*||
--3--3--3--3--6--3--6--2--|--2--2--2--2--2--2--2--2---||


                                                                            
--------------------------||-------------------------|--------------------||
--------------------------||*------------------------|-------------------*||
--------------------------||*------------------------|-------------------*||
--2--2--2--2--2--2--2--2--||---3--2--0--3----3----2--|----------3---------||


                                                                     
---------------------||--------------------|------------------------|
--------------------*||--------------------|------------------------|
--------------------*||--------------------|------------------------|
--2--------3---------||--2--------3--------|--3--2--0--3----3----0--|


                                         
-------------------|-------------------||
-------------------|-------------------||
-------------------|-------------------||
--2----------------|-----------------0-||
            
Submit corrections

comments powered by Disqus
↑ Back to top | Bolt Thrower Bass for Zeroed. Lyrics for acoustic guitar and electric guitar. Tablatures and chords are parodies/interpretations of the original songs. You may use it for private study, scholarship, research or language learning purposes only