» » »

When Cannons Fade Tabs (ver.2)

Artists:  A B C D E F G H I J K L M N O P Q R S T U V W X Y Z # 

When Cannons Fade Tabs (ver.2)

Bolt Thrower
Rating:
3/5 (2 votes)
Tabs too difficult? Try these video lessons and learn fast.
                |------------------------------------------------------|
|------------------------------------------------------|
|------------------------------------------------------|
|------------------------------------------------------|  ---|
|------------------------------------------------------|     |
|--1p-0-0-0-0-0-0-0-1p-0-0-0-0-0-0-0-1p-0-0-0-0-0-0-0--|     |
                                                             |----x8
|---------------------|                                      |
|---------------------|                                      |
|---------------------|                                      |
|---------------------|---                       ------------|
|---------------------|
|--13--13-13--13-13---|

|--------------------------------------------------------|
|--------------------------------------------------------|
|------------------------7-9-----------------------------|
|--6-7-6-7-9-7-9-10-9-10------6-7-6-7-9-7-9-10-9-10-9-10-|  x2
|--------------------------------------------------------|
|--------------------------------------------------------|


I'll tab the rest of the song in the near future
            
Tabs too difficult? Try these video lessons and learn fast.


comments powered by Disqus
↑ Back to top | Tablatures and chords are parodies/interpretations of the original songs. You may use it for private study, scholarship, research or language learning purposes only