>
 >
Sixth Chapter

Sixth Chapter Bass Tabs

Bolt Thrower - Sixth Chapter chords, tabs, tablatures, lyrics

Guitar lessons | Add/correct | Request | Top 50 tabs Artists:  A B C D E F G H I J K L M N O P Q R S T U V W X Y Z 0-9

Sixth Chapter Bass Tabs – Bolt Thrower

CD, Sheet music, Poster

Do you like Sixth Chapter? Share with your friends now
Bass Tabs
tune down

                                               3x                         
E ||---------------------|---------------------||------------------------|
B ||*--------------------|--------------------*||------------------------|
F#||*--------------------|--------------------*||------------------------|
C#||---0--------------5--|----7----8-----------||--5--7----8----1--1--1--|


                                               3x                         
|---------------------|------------------------||------------------------|
|*--------------------|-----------------------*||------------------------|
|*--------------------|-----------------------*||------------------------|
|---0--------------5--|----7----8----1--1--1---||--5--7----8----1--1--1--|


                                               3x                         
|---------------------|------------------------||------------------------|
|*--------------------|-----------------------*||------------------------|
|*--------------------|-----------------------*||------------------------|
|---0--------------5--|----7----8----1--1--1---||--5--7----8----1--1--1--|


                                                                        
|-----------------------------------|----------------------------------|
|*----------------------------------|----------------------------------|
|*----------------------------------|----------------------------------|
|---3-3-3-3-3-3-5-5-5-5-6-6-6-6-6-6-|--3-3-3-3-3-3-5-5-5-5-6-6-6-6-6-6-|


                                                                        
----------------------------------|-----------------------------------||
----------------------------------|----------------------------------*||
----------------------------------|----------------------------------*||
--0-0-0-0-0-0-0-0-0-0-0-0-0-0-0-0-|--0-0-0-0-0-0-6-6-6-6-5-5-5-5-5-5--||


                                                                        
----------------------------------||-----------------------------------|
----------------------------------||*----------------------------------|
----------------------------------||*----------------------------------|
--0-0-0-0-0-0-6-6-6-6-5-5-5-5-5-5-||---3-3-3-3-3-3-5-5-5-5-6-6-6-6-6-6-|


                                                                      
----------------------------------|----------------------------------|
----------------------------------|----------------------------------|
----------------------------------|----------------------------------|
--3-3-3-3-3-3-5-5-5-5-6-6-6-6-6-6-|--0-0-0-0-0-0-0-0-0-0-0-0-0-0-0-0-|


                                                                        
-----------------------------------||----------------------------------|
----------------------------------*||----------------------------------|
----------------------------------*||----------------------------------|
--0-0-0-0-0-0-6-6-6-6-5-5-5-5-5-5--||--0-0-0-0-0-0-6-6-6-6-5-5-5-5-5-5-|


                                               3x                         
|---------------------|------------------------||------------------------|
|*--------------------|-----------------------*||------------------------|
|*--------------------|-----------------------*||------------------------|
|---0--------------5--|----7----8----1--1--1---||--5--7----8----1--1--1--|


                                                                        
|-----------------------------------|----------------------------------|
|*----------------------------------|----------------------------------|
|*----------------------------------|----------------------------------|
|---3-3-3-3-3-3-5-5-5-5-6-6-6-6-6-6-|--3-3-3-3-3-3-5-5-5-5-6-6-6-6-6-6-|


                                                                        
----------------------------------|-----------------------------------||
----------------------------------|----------------------------------*||
----------------------------------|----------------------------------*||
--0-0-0-0-0-0-0-0-0-0-0-0-0-0-0-0-|--0-0-0-0-0-0-6-6-6-6-5-5-5-5-5-5--||


                                                                        
----------------------------------||-----------------------------------|
----------------------------------||*----------------------------------|
----------------------------------||*----------------------------------|
--0-0-0-0-0-0-6-6-6-6-5-5-5-5-5-5-||---3-3-3-3-3-3-5-5-5-5-6-6-6-6-6-6-|


                                                                      
----------------------------------|----------------------------------|
----------------------------------|----------------------------------|
----------------------------------|----------------------------------|
--3-3-3-3-3-3-5-5-5-5-6-6-6-6-6-6-|--0-0-0-0-0-0-0-0-0-0-0-0-0-0-0-0-|


                                                                        
-----------------------------------||----------------------------------|
----------------------------------*||----------------------------------|
----------------------------------*||----------------------------------|
--0-0-0-0-0-0-6-6-6-6-5-5-5-5-5-5--||--0-0-0-0-0-0-6-6-6-6-5-5-5-5-5-5-|


                                                                 
----------------------|------------------|----------------------|
----------------------|------------------|----------------------|
----------------------|------------------|----------------------|
--0----0--2----3------|------------------|--0----0--2----3------|


                                                             
------------------|----------------------|------------------|
------------------|----------------------|------------------|
------------------|----------------------|------------------|
------------------|--0----0--2----3------|------------------|


                                                                 
----------------------|------------------|----------------------|
----------------------|------------------|----------------------|
----------------------|------------------|----------------------|
--0----0--2----3------|------------------|--0----0--2----3------|


                                                             
------------------|----------------------|------------------|
------------------|----------------------|------------------|
------------------|----------------------|------------------|
------------------|--0----0--2----3------|------------------|


                                                                 
----------------------|------------------|----------------------|
----------------------|------------------|----------------------|
----------------------|------------------|----------------------|
--0----0--2----3------|------------------|--0----0--2----3------|


                                                                 
------------------|----------------------|----------------------|
------------------|----------------------|----------------------|
------------------|----------------------|----------------------|
------------------|--0----0--2----3------|--3----3--5----6------|


                                                                     
----------------------|----------------------|----------------------|
----------------------|----------------------|----------------------|
----------------------|----------------------|----------------------|
--0----0--2----3------|--3----3--5----6------|--0----0--2----3------|


                                                                     
----------------------|----------------------|----------------------|
----------------------|----------------------|----------------------|
----------------------|----------------------|----------------------|
--3----3--5----6------|--0----0--2----3------|--3----3--5----6------|


                                                                     
----------------------|----------------------|----------------------|
----------------------|----------------------|----------------------|
----------------------|----------------------|----------------------|
--0----0--2----3------|--3----3--5----6------|--0----0--2----3------|


                                                                     
----------------------|----------------------|----------------------|
----------------------|----------------------|----------------------|
----------------------|----------------------|----------------------|
--3----3--5----6------|--0----0--2----3------|--3----3--5----6------|


                                                                       
----------------------|----------------------||-----------------------|
----------------------|----------------------||*----------------------|
----------------------|----------------------||*----------------------|
--0----0--2----3------|--3----3--5----6------||---0----0--2----3------|


                                                             
------------------|----------------------|------------------|
------------------|----------------------|------------------|
------------------|----------------------|------------------|
------------------|--0----0--2----3------|------------------|


                                                                 
----------------------|------------------|----------------------|
----------------------|------------------|----------------------|
----------------------|------------------|----------------------|
--0----0--2----3------|------------------|--0----0--2----3------|


                                                                 
-------------------||-------------------|-----------------------|
------------------*||-------------------|-----------------------|
------------------*||-------------------|-----------------------|
-------------------||--3----------------|--0----0--2----3----0--|


                                                                             
-------------------|------------------|------------------|------------------|
-------------------|------------------|------------------|------------------|
-------------------|------------------|------------------|------------------|
--0----------------|------------------|------------------|------------------|


                                                              
-------------------|-------------------|---------------------|
--5----------------|-------------------|---------------------|
-------------------|-------------------|---------------------|
--3----------------|--0----------------|--8------7------5----|


                                                            
-------------------|-------------------|-------------------|
-------------------|--5----------------|-------------------|
-------------------|-------------------|-------------------|
--0----------------|--3----------------|--0----------------|


                                                                
---------------------||--------------------|-------------------|
---------------------||*-------------------|--5----------------|
---------------------||*-------------------|-------------------|
--8------7------5----||---0----------------|--3----------------|


                                                                  
-------------------|----------------------||---------------------|
-------------------|---------------------*||---------------------|
-------------------|---------------------*||---------------------|
--0----------------|--8------7------5-----||--8------7------5----|


                                                              
|--------------------|-------------------|-------------------|
|*-------------------|--5----------------|-------------------|
|*-------------------|-------------------|-------------------|
|---0----------------|--3----------------|--0----------------|


                                                                    
----------------------||---------------------||--------------------|
---------------------*||---------------------||*-------------------|
---------------------*||---------------------||*-------------------|
--8------7------5-----||--8------7------5----||---0----------------|


                                                                
-------------------|-------------------|----------------------||
--5----------------|-------------------|---------------------*||
-------------------|-------------------|---------------------*||
--3----------------|--0----------------|--8------7------5-----||


                                                                
-------------------|---------------------||--------------------|
-------------------|---------------------||*-------------------|
-------------------|---------------------||*-------------------|
--0----------------|--8------7------5----||---0----------------|


                                                                
-------------------|-------------------|----------------------||
--5----------------|-------------------|---------------------*||
-------------------|-------------------|---------------------*||
--3----------------|--0----------------|--8------7------5-----||


                                                              
-------------------|---------------------|-------------------|
-------------------|---------------------|-------------------|
-------------------|---------------------|-------------------|
--0----------------|--8------7------5----|--0----------------|


                                                              
-------------------|-------------------|---------------------|
--5----------------|-------------------|---------------------|
-------------------|-------------------|---------------------|
--3----------------|--0----------------|--8------7------5----|


                                                            
-------------------|-------------------|-------------------|
-------------------|--5----------------|-------------------|
-------------------|-------------------|-------------------|
--0----------------|--3----------------|--0----------------|


                                                              
---------------------|-------------------|-------------------|
---------------------|-------------------|--5----------------|
---------------------|-------------------|-------------------|
--8------7------5----|--0----------------|--3----------------|


                                                              
-------------------|---------------------|-------------------|
-------------------|---------------------|-------------------|
-------------------|---------------------|-------------------|
--0----------------|--8------7------5----|--0----------------|


                                                               
-------------------|-------------------|---------------------||
--5----------------|-------------------|---------------------||
-------------------|-------------------|---------------------||
--3----------------|--0----------------|--8------7------5----||





Comments


Popular Bolt Thrower tabs & chords
Cenotaph 1 Tabs
Destructive Infinity Tabs
Final Revelation Tabs
Honor Tabs
No Guts, No Glory Tabs
Ritual Tabs
Shreds Of Sanity 1 Tabs
The Ivth Crusade Tabs
War Master Intro Tabs
When Cannons Fade 1 Tabs


Song lyrics



↑ Back to top | Tablatures and chords are parodies/interpretations of the original songs. You may use it for private study, scholarship, research or language learning purposes only
© 2014 AZChords.com Contact us | Privacy policy | DMCA | Add/correct tabs | Request tabs | Top 50 tabs