» » »

Bolt Thrower, Salvo Tabs (ver.1)

Artists:  A B C D E F G H I J K L M N O P Q R S T U V W X Y Z # 

Salvo Tabs (ver.1)

Bolt Thrower Tabs
 Rating:
4.4/5 (7 votes)
Salvo lessons Tabs too difficult? Try these video lessons and learn fast
                Band: Bolt Thrower
Label: Metalblade


Okay, This Is My First Tab So I Dont Think It Will Be 100% But I Will Try...
This Song Is One Of My Favourite Songs Of The CD And It Is Fairly Easy To Play
And This May Sound Strange But This Song Sounds Great On  An Acoustic Guitar

Tab Legend

.  - palm mute       / - slide up to
tr - trill           \ - slide down to
h  - hammer on       ^ - bend
p  - pull off        ~ - vibrato  
*  - pinch harmonic  " - tremolo picked notes

0:00 Riff 1 x4
|------------------------------|
|------------------------------|
|------------------------------|
|------------------------------|
|-2--5--8-7--8-7~~~------------|
|-0--3--6-5--------------------|

0:23 Riff 2 x16
|-----------------------------|
|-----------------------------|
|-----------------------------|
|-----------------------------|
|22222--5-7/8\7-5-7-----------|
|00000------------------------|
 .....

(After The 8th Time That Riff 2 Is Played Guitar 2 Plays This)
0:46 Riff 3 x4 
|-----------------------------|
|-----------------------------|
|-----------------------------|
|-----------------------------|
|-----------------------------|
|--0000333366665555-----------|
   """"""""""""""""

1:09 Riff 1 x4 (Under Solo)

1:31  Riff 4 x1
|-----------------------------|
|-----------------------------|
|-----------------------------|
|-----------------------------|
|-2~~~~~~~~~~~~~~~~~~~~~~~~-2-|
|-0~~~~~~~~~~~~~~~~~~~~~~~~-0-|

1:37 Riff 5 x10
|-----------------------------|
|-----------------------------|
|-----------------------------|
|-----------------------------|
|------557788775577-----------|
|00000------------------------|
 """"" """"""""""""

2:07 Riff 6 x4
|-----------------------------|
|-----------------------------|
|-----------------------------|
|-----------------------------|
|-2-22-6-5-5-4-3--------------|
|-0-00-4-3-3-2-1--------------|

2:30 Riff 5 x8
2:53 Riff 6 x4

3:17 Riff 7 x8 (Under Solo)
|----------------------------|
|----------------------------|
|------2-3-2-2---------------|
|------2-3-2-0---------------|
|----------------------------|
|-000------------------------|
  """
3:40 Riff 8 x8 (First 4 Times Are Played Under Solo)
|----------------------------|
|----------------------------|
|----------------------------|
|----------------------------|
|----------------------------|
|-0-1-4-1-4-1-0--------------|

4:04 Riff 6 x8 (After 4th Time It Speeds Up A Little Bit)
4:51 Riff 5 x8

5:13 Ending x1
|---------------------------|
|---------------------------|
|---------------------------|
|---------------------------|
|-22222---------------------|
|-00000---------------------|
  .....

Thats The Whole Song...
Good Luck...
            
Submit corrections

comments powered by Disqus
↑ Back to top | Bolt Thrower Tabs for Salvo. Lyrics for acoustic guitar and electric guitar. Tablatures and chords are parodies/interpretations of the original songs. You may use it for private study, scholarship, research or language learning purposes only