>
 >
Mercenary

Mercenary Bass Tabs

Bolt Thrower - Mercenary chords, tabs, tablatures, lyrics

Guitar lessons | Add/correct | Request | Top 50 tabs Artists:  A B C D E F G H I J K L M N O P Q R S T U V W X Y Z 0-9

Mercenary Bass Tabs – Bolt Thrower

CD, Sheet music, Poster

Do you like Mercenary? Share with your friends now
Bass Tabs
tune down

E ||-------------|-------------------|------------------|-------------------|
B ||*------------|-------------------|------------------|-------------------|
F#||*------------|-------------------|------------------|-------------------|
C#||---6----5----|--2----------------|------------------|--8----------------|


                                                                               
-----------||-----------|------------||--------------------|------------------|
----------*||-----------|------------||*-------------------|------------------|
----------*||-----------|------------||*-------------------|------------------|
-----------||--8--------|--6----5----||---2----------------|------------------|


                                                                 
-------------------|---------------------||---------------------|
-------------------|--------------------*||---------------------|
-------------------|--------------------*||---------------------|
--8----------------|----------6----5-----||--8--------6----5----|


                                                             
|--------------------|------------------|-------------------|
|*-------------------|------------------|-------------------|
|*-------------------|------------------|-------------------|
|---2----------------|------------------|--8----------------|


                                                                
---------------------||-------------------|--------------------|
--------------------*||-------------------|--------------------|
--------------------*||-------------------|--------------------|
----------6----5-----||--8----------------|----------6----5----|


                                                        
|---------------------------|--------------------------|
|*--------------------------|--------------------------|
|*--------------------------|--------4--4--3--3--1--1--|
|---2--2--2--2--2--2--2--2--|--2--2--------------------|


                                                        
--------------------------|---------------------------||
--------------------------|--------------------------*||
--3--3--3--3--3--3--------|--------------------------*||
--------------------3--3--|--3--3--3--3--3--3--3--3---||


                                                        
--------------------------||---------------------------|
--------------------------||*--------------------------|
--------------------------||*--------------------------|
--3--3--3--3--3--3--3--3--||---2--2--2--2--2--2--2--2--|


                                                      
--------------------------|--------------------------|
--------------------------|--------------------------|
--------4--4--3--3--1--1--|--3--3--3--3--3--3--------|
--2--2--------------------|--------------------3--3--|


                                                                              
---------------------------||--------------------------||--------------------|
--------------------------*||--------------------------||*-------------------|
--------------------------*||--------------------------||*-------------------|
--3--3--3--3--3--3--3--3---||--3--3--3--3--3--3--3--3--||---2----------------|


                                                              
------------------|-------------------|---------------------||
------------------|-------------------|--------------------*||
------------------|-------------------|--------------------*||
------------------|--8----------------|----------6----5-----||


                                                               
---------------------||--------------------|------------------|
---------------------||*-------------------|------------------|
---------------------||*-------------------|------------------|
--8--------6----5----||---2----------------|------------------|


                                                                 
-------------------|---------------------||---------------------|
-------------------|--------------------*||---------------------|
-------------------|--------------------*||---------------------|
--8----------------|----------6----5-----||--8--------6----5----|


                                                                              
-------------------|------------------|-------------------|------------------|
-------------------|------------------|-------------------|------------------|
-------------------|------------------|-------------------|------------------|
--2----------------|------------------|--2----------------|------------------|


                                                                             
------------------|------------------|-------------------|------------------|
------------------|------------------|-------------------|------------------|
------------------|------------------|-------------------|------------------|
------------------|------------------|--2----------------|------------------|


                                                                          
--------------------|-----------------------||---------------------------|
--------------------|-----------------------||*--------------------------|
--------------------|-----------------------||*--------------------------|
--2--------------6--|----5----3----5--3--0--||---2--2--2--2--3--2--2--6--|


                                                      
--------------------------|--------------------------|
--------------------------|--------------------------|
--------------------------|--------------------------|
--2--5--2--3--3--5--3--0--|--2--2--2--2--3--2--2--6--|


                                                        
---------------------------||--------------------------|
--------------------------*||--------------------------|
--------------------------*||--------------------------|
--2--5--2--3--3--5--3--0---||--2--5--2--3--3--5--3--0--|


                                                        
|---------------------------|--------------------------|
|*--------------------------|--------------------------|
|*--------------------------|--------------------------|
|---2--2--2--2--3--2--2--6--|--2--5--2--3--3--5--3--0--|


                                                        
--------------------------|---------------------------||
--------------------------|--------------------------*||
--------------------------|--------------------------*||
--2--2--2--2--3--2--2--6--|--2--5--2--3--3--5--3--0---||


                                                        
--------------------------||---------------------------|
--------------------------||*--------------------------|
--------------------------||*--------------------------|
--2--5--2--3--3--5--3--0--||---2--2--2--2--3--2--2--6--|


                                                      
--------------------------|--------------------------|
--------------------------|--------------------------|
--------------------------|--------------------------|
--2--5--2--3--3--5--3--0--|--2--2--2--2--3--2--2--6--|


                                                        
---------------------------||--------------------------|
--------------------------*||--------------------------|
--------------------------*||--------------------------|
--2--5--2--3--3--5--3--0---||--2--2--2--2--3--2--2--6--|


                                                                      
--------------------------||--------------------|--------------------|
--------------------------||*-------------------|--------------------|
--------------------------||*-------------------|--------------------|
--2--5--2--3--3--5--3--0--||---2----------------|--3--------5--------|


                                                               
-------------------|----------------------|-------------------|
-------------------|----------------------|-------------------|
-------------------|----------------------|-------------------|
--2----------------|--3--2----3----0------|--2----------------|


                                                                  
--------------------|-------------------|-----------------------||
--------------------|-------------------|----------------------*||
--------------------|-------------------|----------------------*||
--3--------5--------|--2----------------|--3--2----3----0-------||


                                                                               
----------------------||---------------------------|--------------------------|
----------------------||*--------------------------|--------------------------|
----------------------||*--------------------------|--------------------------|
--3--2----3----0------||---2--2--2--2--3--2--2--6--|--2--5--2--3--3--5--3--0--|


                                                        
--------------------------|---------------------------||
--------------------------|--------------------------*||
--------------------------|--------------------------*||
--2--2--2--2--3--2--2--6--|--2--5--2--3--3--5--3--0---||


                                                      
--------------------------|--------------------------|
--------------------------|--------------------------|
--------------------------|--------------------------|
--2--2--2--2--3--2--2--6--|--2--5--2--3--3--5--3--0--|


                                                        
|---------------------------|--------------------------|
|*--------------------------|--------------------------|
|*--------------------------|--------------------------|
|---2--2--2--2--3--2--2--6--|--2--5--2--3--3--5--3--0--|


                                                        
--------------------------|---------------------------||
--------------------------|--------------------------*||
--------------------------|--------------------------*||
--2--2--2--2--3--2--2--6--|--2--5--2--3--3--5--3--0---||


                                                        
--------------------------||---------------------------|
--------------------------||*--------------------------|
--------------------------||*--------------------------|
--2--5--2--3--3--5--3--0--||---2--2--2--2--3--2--2--6--|


                                                      
--------------------------|--------------------------|
--------------------------|--------------------------|
--------------------------|--------------------------|
--2--5--2--3--3--5--3--0--|--2--2--2--2--3--2--2--6--|


                                                        
---------------------------||--------------------------|
--------------------------*||--------------------------|
--------------------------*||--------------------------|
--2--5--2--3--3--5--3--0---||--2--2--2--2--3--2--2--6--|


                                                                      
--------------------------||--------------------|--------------------|
--------------------------||*-------------------|--------------------|
--------------------------||*-------------------|--------------------|
--2--5--2--3--3--5--3--0--||---2----------------|--3--------5--------|


                                                               
-------------------|----------------------|-------------------|
-------------------|----------------------|-------------------|
-------------------|----------------------|-------------------|
--2----------------|--3--2----3----0------|--2----------------|


                                                                  
--------------------|-------------------|-----------------------||
--------------------|-------------------|----------------------*||
--------------------|-------------------|----------------------*||
--3--------5--------|--2----------------|--3--2----3----0-------||


                                                           
--------------------|------------------|------------------|
*-------------------|------------------|------------------|
*-------------------|------------------|------------------|
---2----------------|------------------|------------------|


                                                                           
----------------------||----------------------||--------------------------|
---------------------*||----------------------||*-------------------------|
---------------------*||----------------------||*-------------------------|
----0--2--3-----------||--2--0--2--3----------||---2----2--2--2--3--2--2--|


                                                                          
------------------------|------------------------|----------------------||
------------------------|------------------------|---------------------*||
---------1-----2-----1--|------------------------|---------------------*||
------2-----2-----2-----|------2--2--2--3--2--2--|----0--2--3-----------||


                                                                            
----------------------||--------------------------|------------------------|
----------------------||*-------------------------|------------------------|
----------------------||*-------------------------|---------1-----2-----1--|
--2--0--2--3----------||---2----2--2--2--3--2--2--|------2-----2-----2-----|


                                                                        
------------------------|----------------------||----------------------|
------------------------|---------------------*||----------------------|
------------------------|---------------------*||----------------------|
------2--2--2--3--2--2--|----0--2--3-----------||--2--0--2--3----------|


                                                                              
|--------------------------|------------------------|------------------------|
|*-------------------------|------------------------|------------------------|
|*-------------------------|---------1-----2-----1--|------------------------|
|---2----2--2--2--3--2--2--|------2-----2-----2-----|------2--2--2--3--2--2--|


                                                                            
----------------------||----------------------||---------------------------|
---------------------*||----------------------||*--------------------------|
---------------------*||----------------------||*--------------------------|
----0--2--3-----------||--2--0--2--3----------||---2--2--2--2--2--2--0--2--|


                                                      
--------------------------|--------------------------|
--------------------------|--------------------------|
--------------------------|--------------------------|
--2--2--2--2--2--2--3--2--|--2--2--2--2--2--2--0--2--|


                                                        
---------------------------||--------------------------|
--------------------------*||--------------------------|
--------------------------*||--------------------------|
--2--2--2--2--2--2--3--3---||--2--2--2--2--2--2--0--2--|


                                                        
--------------------------||---------------------------|
--------------------------||*--------------------------|
--------------------------||*--------------------------|
--2--2--2--2--2--2--3--3--||---2--2--2--2--2--2--0--2--|


                                                      
--------------------------|--------------------------|
--------------------------|--------------------------|
--------------------------|--------------------------|
--2--2--2--2--2--2--3--2--|--2--2--2--2--2--2--0--2--|


                                                        
---------------------------||--------------------------|
--------------------------*||--------------------------|
--------------------------*||--------------------------|
--2--2--2--2--2--2--3--3---||--2--2--2--2--2--2--0--2--|


                                                                  
--------------------------|-------------------|------------------|
--------------------------|-------------------|------------------|
--------------------------|-------------------|------------------|
--2--2--2--2--2--2--3--3--|--2----------------|------------------|


                                                                   
------------------|---------------------|-------------------------|
------------------|---------------------|-------------------------|
------------------|---------------------|-------------------------|
------------------|----0--2--3----------|--2----2--2--2--2--2--2--|


                                                                             
--------------------------|--------------------------|----------------------|
--------------------------|--------------------------|----------------------|
--------------------------|--------------------------|----------------------|
--2--2--2--2--2--2--2--2--|--2--2--2--2--2--2--2--2--|--2--0--2--3----------|


                                                                               
-------------------|------------------|------------------|-------------------||
--4----------------|------------------|------------------|-------------------||
-------------------|------------------|------------------|-------------------||
--2----------------|------------------|------------------|--------------0----||





Comments


Popular Bolt Thrower tabs & chords
Sixth Chapter Bass Tabs
Destructive Infinity Tabs
Final Revelation Tabs
Granite Wall Tabs
Lest We Forget Tabs
Salvo Tabs
Shreds Of Sanity 1 Tabs
The Ivth Crusade Tabs
War Master Intro Tabs
When Cannons Fade Tabs


Song lyrics



↑ Back to top | Tablatures and chords are parodies/interpretations of the original songs. You may use it for private study, scholarship, research or language learning purposes only
© 2014 AZChords.com Contact us | Privacy policy | DMCA | Add/correct tabs | Request tabs | Top 50 tabs