» » »

Bolt Thrower, Granite Wall Tabs (ver.1)

Artists:  A B C D E F G H I J K L M N O P Q R S T U V W X Y Z # 

Granite Wall Tabs (ver.1)

Bolt Thrower Tabs
Rating:
4/5 (2 votes)
Granite Wall lessons Tabs too difficult? Try these video lessons and learn fast
                Band: Bolt Thrower
Label: Metalblade

        This Is Song Is My Second Favourite Off This Album And It Took A While For Me To Tab.
         I Am Currently Working On Other Songs Off Of This Cd...

Tab Legend

.  - palm muting     / - slide up to
tr - trill           \ - slide down to
h  - hammer on       ^ - bend
p  - pull off        ~ - vibrato  
*  - pinch harmonic  " - tremolo picked notes


0:00 Riff 1 x4
|-------------------------------|
|-------------------------------|
|-------------------------------|
|-------------------------------|
|-4-----2-----4~~~---2h5-2h5----|
|---000---000-----00------------|
    ...   ...     ..

0:14 Riff 2 x4                    
|-------------------------------|  \
|-------------------------------|   \
|-------------------------------|    \
|-------------------------------|     \
|-4-------------4-----3~--------|      \
|-2-000-3p2-2p1-2-000-----------|       \
    ...           ...                    \
                                          ) In Case You Dont Know...These 2 Parts Are 1 Riff
Riff 2 Continued                         /
|-------------------------------|       /
|-------------------------------|      /
|-------------------------------|     /
|-------------------------------|    /
|-4-------------4-----5~~-------|   /
|-2-000-3p2-2p1-2-000-----------|  /
    ...           ...             

0:43   Riff 3 x4 
|-------------------------------|
|-------------------------------|
|-------------------------------|
|-------------------------------|
|-------------------------------|
|-2-0-2-0-0-2-0-2-3~~-0---------|
  ^   ^     ^   ^ 

0:57 Riff 4 x4
|-------------------------------|
|-------------------------------|
|-------------------------------|
|-------------------------------|
|-2----2-4~~-2-----2h5-2h5------|
|---000--------000--------------|
    ..         ...

1:11 Riff 5 x1
|-------------------------------|
|-------------------------------|
|-------------------------------|
|-------------------------------|
|---55-334----------------------|
|---33-112----------------------|

1:12 Riff 4 x4
1:40 Riff 3 x8

2:09 Riff 6 x1
|-------------------------------|\
|-------------------------------| \
|-------------------------------|  \ Let This Riff Ring
|-------------------------------|  / Until Riff 7 Starts
|-2~~~~~~~~~~~~~~~~~~~~~~~~~~~~~| /
|-0~~~~~~~~~~~~~~~~~~~~~~~~~~~~~|/

2:12 Riff 7 x8
|------------------------------|
|------------------------------|
|------------------------------|
|------------------------------|
|-4-2-4-2-45-4-2-1h2-4p2p1-----|
|-2-0-2-0-23-2-0---------------|

2:41 Riff 4 x8 (Under Solo)
3:09 Riff 5 x1

3:10 Riff 8 x14
|-----------------------------|
|-----------------------------|
|-----------------------------|
|-----------------------------|
|-----------------------------|
|-1p0-00-00103-1p0-00-2h3-2h3-|

3:59 Riff 9 x1
|-----------------------------|
|-----------------------------|
|-----------------------------|
|-----------------------------|
|-332242~~~-------------------|
|-110020~~~-------------------|

Thats The Whole Song (Except The Solo!)
Good Luck!!!
            

comments powered by Disqus
↑ Back to top | Bolt Thrower Tabs for Granite Wall. Lyrics for acoustic guitar and electric guitar. Tablatures and chords are parodies/interpretations of the original songs. You may use it for private study, scholarship, research or language learning purposes only