» » »

Bolt Thrower, Behind Enemy Lines Tabs (ver.1)

Artists:  A B C D E F G H I J K L M N O P Q R S T U V W X Y Z # 

Behind Enemy Lines Tabs (ver.1)

Bolt Thrower Tabs
 Rating:
4.2/5 (5 votes)
Behind Enemy Lines lessons Tabs too difficult? Try these video lessons and learn fast
                -------------------------------------------------------------------------------
-------------------------------------------------------------------------------

Tuning: C


|(0) Let Ring
| ~  Vibrato
| *  Pick Squeal
| b  Bend
===============================================================================

GUITAR 1 (Both Guitars At First)
|--------------------|
|--------------------|
|--------------------|
|-3------------------|
|-1-------3-2--2-1---|
|---------1(0)-----4-| x20

GUITAR 2
|--------------------|
|--------------------|
|--------------------|
|-8---6--------9-8-6-|
|--------8-7---------|
|--------------------| x8



BOTH GUITARS
|-----------------------------------------------------------|
|-----------------------------------------------------------|
|-----------------------------------------------------------|
|-----------------------------------------------------------|
|-111111---------22111111-----------------------22244422222-|
|-------44440044--------444400444400000000333300------------| x4



GUITAR 1 (Both Guitars At First)
|--------------------|
|--------------------|
|--------------------|
|-3------------------|
|-1-------3-2--2-1---|
|---------1(0)-----4-| x12

GUITAR 2
|--------------------|
|--------------------|
|--------------------|
|-8---6--------9-8-6-|
|--------8-7---------|
|--------------------| x8



BOTH GUITARS
|-----------------------------------------------------------|
|-----------------------------------------------------------|
|-----------------------------------------------------------|
|-----------------------------------------------------------|
|-111111---------22111111-----------------------22244422222-|
|-------44440044--------444400444400000000333300------------| x4



GUITAR 1
|------------------------------|
|------------------------------|
|------------------------------|
|----------------9--9----------|
|-8--------------7--7----------|
|-6----------------------------| x4

GUITAR 2
|------------------------------|
|------------------------------|
|----------------4--4--4-5-4-4-|
|----------------2--2--2-3-2-2-|
|-8--6--8--6--5----------------|
|-6--4--6--4--3----------------| x4



BOTH GUITARS
|------------------------------|
|------------------------------|
|----------------4--4--4-5-4-4-|
|----------------2--2--2-3-2-2-|
|-8--6--8--6--5----------------|
|-6--4--6--4--3----------------| x4



BOTH GUITARS
|------------------------------|
|------------------------------|
|------------------------------|
|------------------------------|
|-8--6--8--6--5--2--2--2-3-2-2-|
|-6--4--6--4--3--0--0--0-1-0-0-| x4



GUITAR 1 (Rhythm Guitar, Behind The Solo)
|------------------------------|
|------------------------------|
|------------------------------|
|------------------------------|
|-8--6--8--6--5--2--2--2-3-2-2-|
|-6--4--6--4--3--0--0--0-1-0-0-| x4

|--------------------|
|--------------------|
|--------------------|
|-3------------------|
|-1-------3-2--2-1---|
|---------1(0)-----4-| x4

|-----------------------------------------------------------|
|-----------------------------------------------------------|
|-----------------------------------------------------------|
|-----------------------------------------------------------|
|-111111---------22111111-----------------------22244422222-|
|-------44440044--------444400444400000000333300------------| X4

GUITAR 2 - SOLO:
|-----------------------------------------------------------|
|-11~~~~~~~~~~~~~11b-----------11~~~~~~~~~~~~~11b-----------|
|-----------------------------------------------------------|
|-----------------------------------------------------------|
|-----------------------------------------------------------|
|-----------------------------------------------------------|
  *               *             *              *

|------------------------------------------------|
|-11-9-11b---9--11-9-11b---11-9-11b---9-11-9-11b-|
|------------------------------------------------|
|------------------------------------------------|
|------------------------------------------------|
|------------------------------------------------|

|----------------------------11-10--------------------|
|------------11-9b---11-9-11----------11-9-11-12-11-9-|
|-7b---8-7-8------------------------------------------|
|-----------------------------------------------------|
|-----------------------------------------------------|
|-----------------------------------------------------|

|----------------------------11-10--------------------|
|------------11-9b---11-9-11----------11-9-11-12-11-9-|
|-7b---8-7-8------------------------------------------|
|-----------------------------------------------------|
|-----------------------------------------------------|
|-----------------------------------------------------|

|--------------------------------------------------------------------------|
|-11-9----9-11-11-11b--9-11b-11b--9-11-9-12--12--12--12-14--12-14-15-12-14-|
|------10------------------------------------------------------------------|
|--------------------------------------------------------------------------|
|--------------------------------------------------------------------------|
|--------------------------------------------------------------------------| 

|--------------------------------------------------------------------------|
|-11-9----9-11-11-11b--9-11b-11b--9-11-9-12--12--12--12-14--12-14-15-12-14-|
|------10------------------------------------------------------------------|
|--------------------------------------------------------------------------|
|--------------------------------------------------------------------------|
|--------------------------------------------------------------------------|

|-------------------------------------------------------------------------------|
|-15---12-----------15---12-------------9-11-12---15-12-15--12-15-12-15-12-15b--|
|----------15-13-15----------15-13-15-9-----------------------------------------|
|-------------------------------------------------------------------------------|
|-------------------------------------------------------------------------------|
|-------------------------------------------------------------------------------|

|-------------------------------------------------------------------------------|
|-15---12-----------15---12-------------9-11-12---15-12-15--12-15-12-15-12-15b--|
|----------15-13-15----------15-13-15-9-----------------------------------------|
|-------------------------------------------------------------------------------|
|-------------------------------------------------------------------------------|
|-------------------------------------------------------------------------------|

|-------------------------------|
|-11b---------------------------|
|-------------------------------|
|-------------------------------|
|-------------------------------|
|-------------------------------|

Both Guitars (Guitar 2 comes in after last note in the solo drifts a while)
|--------------------|
|--------------------|
|--------------------|
|-8---6--------9-8-6-|
|--------8-7---------|
|--------------------| X8


|-------------------------|
|-------------------------|
|-------------------------|
|-3-----------------------|
|-1-----------------------|
|-------------------------|
            
Submit corrections

comments powered by Disqus
↑ Back to top | Bolt Thrower Tabs for Behind Enemy Lines. Lyrics for acoustic guitar and electric guitar. Tablatures and chords are parodies/interpretations of the original songs. You may use it for private study, scholarship, research or language learning purposes only