» » »

Roadrunner Tabs (ver.1)

Artists:  A B C D E F G H I J K L M N O P Q R S T U V W X Y Z # 

Roadrunner Tabs (ver.1)

Bo Diddley
Rating:
0/5 (0 votes)

Hard to play? Try these video lessons and learn fast.
                (Intro)
Really easy song.


E------------------------------|
B------------------------------|
G------------------------------|  x4
D------------------------2-----|
A--------------2--2--4---------|
E--0--0--3--4------------------|

E------------------------------|
B------------------------------|  x
G------------------------------|
D---------------2--2-----------|
A--0--0--3--4---------3--4-----|
E------------------------------|

E------------------------------|
B------------------------------|
G------------------------------|
D--4--4--4--4--4--4--4--4--2---|
A--2--2--2--2--2--2--2--2--0---|
E------------------------------|

Then comes a full 4/4 break. And then comes this part again:

E----------------------------------------|
B----------------------------------------|
G----------------------------------------|
D------------------------2---------------|
A--------------2--2--4-------0----1----2-|
E--0--0--3--4----------------------------|
            
Hard to play? Try these video lessons and learn fast. | Correct




comments powered by Disqus
↑ Back to top | Tablatures and chords are parodies/interpretations of the original songs. You may use it for private study, scholarship, research or language learning purposes only