>
 >
Turn The Page

Turn The Page Bass Tabs

Bob Seger - Turn The Page chords, tabs, tablatures, lyrics

Guitar lessons | Add/correct | Request | Top 50 tabs Artists:  A B C D E F G H I J K L M N O P Q R S T U V W X Y Z 0-9

Turn The Page Bass Tabs – Bob Seger

CD, Sheet music, Poster

Do you like Turn The Page? Share with your friends now
Bass TabsBass Tabs v2ChordsChords v2Tabs
I tabbed this out probably about 5 or 6 years ago with my bass teacher at the time. It 
us a while to pull it off (I'm slightly deaf), but here it is. I originally wanted to tab 
Metallica Version, but my bass teacher had me listen to the original and it went from there.

I'd suggest using a sound system with a graphic equalizer, as the bass line is pretty 
and hard to pick up in certain parts, so the more you can hear the bass the easier it is 
get the timing down.

Enjoy!

INTRO
|-----------------|-----------------|-----------------|-----------------|
|-----------------|-----------------|-----------------|-----------------|
|-7---------------|-----------------|-7---------------|-----------------|
|-----------------|-----------------|-----------------|-----------------|

|-----------------|-----------------|-----------------|-----------------|
|-----------------|-----------------|-----------------|-----------------|
|-5h7-------------|-----------------|-5h7-------------|-----------------|
|-----------------|-----------------|-----------------|-----------------|

VERSE
|-----------------|-----------------|-----------------|-----------------|
|-----------------|-----------------|-----------------|-----------------|
|-7-----------7---|-7---------------|-7-----------7---|-7---------------|
|-----------------|-----------------|-----------------|-----------------|

|-----------------|-----------------|-----------------|-----------------|
|-----------------|-----------------|-----------------|-----------------|
|-5-----------5---|-5---------------|-5-----------5---|-5---------------|
|-----------------|-----------------|-----------------|-----------------|

|-----------------|-----------------|-----------------|-----------------|
|-7-----------7---|-7---------------|-7-----------7---|-7---------------|
|-----------------|-----------------|-----------------|-----------------|
|-----------------|-----------------|-----------------|-----------------|

|-----------------|-----------------|-----------------|-----------------|
|-----------------|-----------------|-----------------|-----------------|
|-5h7-------------|-----------------|-5h7-------------|-----------------|
|-----------------|-----------------|-----------------|-----------------|

VERSE
|-----------------|-----------------|-----------------|-----------------|
|-----------------|-----------------|-----------------|-----------------|
|-7-----------7---|-7---------------|-7-----------7---|-7---------------|
|-----------------|-----------------|-----------------|-----------------|

|-----------------|-----------------|-----------------|-----------------|
|-----------------|-----------------|-----------------|-----------------|
|-5-----------5---|-5---------------|-5-----------5---|-5---------------|
|-----------------|-----------------|-----------------|-----------------|

|-----------------|-----------------|-----------------|-----------------|
|-7-----------7---|-7-----------5---|-7-----------7---|-7---------------|
|-----------------|---------7-------|-----------------|-----------------|
|-----------------|-----------------|-----------------|-----------------|

|-----------------|-----------------|-----------------|---------9-------|
|-----------------|-----------------|-----------------|-----------5-----|
|-5h7-------------|-----------------|-5h7-------------|-------------7---|
|-----------------|-----------------|-----------------|-----------------|

CHORUS
|-----------------|-----------------|-----------------|-----------------|
|---------7-------|---------7-------|---------9-------|---------9-------|
|-5---------------|-5-----------5---|-7---------------|-7-----------7---|
|-----------------|-----------------|-----------------|-----------------|

|-----------------|-----------------|-----------------|-----------------|
|---------7-------|---------7-------|---------9-------|-----------9-----|
|-5---------------|-5-----------5---|-7---------------|-7-----------7---|
|-----------------|-----------------|-----------------|-----------------|

|-----------------|-----------------|-----------------|-----------------|
|---------7-------|-----------------|-7---------------|-7-------7---9---|
|-5---------------|-5-------5---7---|---------7-------|-----------------|
|-----------------|-----------------|-----------------|-----------------|

|-----------------|-----------------|-----------------|-----------------|
|---------5-------|---------7-------|-----------------|-----------------|
|-----------------|-5-----------5---|-5h7-------------|-----------------|
|-8-----------8---|-----------------|-----------------|-----------------|

|-----------------|-----------------|-----------------|-----------------|
|-----------------|-----------------|-----------------|-----------------|
|-5h7-------------|-----------------|-5h7-------------|-----------------|
|-----------------|-----------------|-----------------|-----------------|

|-----------------|---------9-------|
|-----------------|-------------5---|
|-5h7-------------|-----------------|
|-----------------|-----------------|

VERSE
|-----------------|-----------------|-----------------|-----------------|
|-----------------|-----------------|-----------------|-----------------|
|-7-----------7---|-7-----------7-5-|-7-----------7---|-7---------------|
|-----------------|-----------------|-----------------|-----------------|

|-----------------|-----------------|-----------------|-----------------|
|-----------------|-----------------|-------------7---|-----------------|
|-5-----------5---|-5-----------5---|-5---------------|-5---------------|
|-----------------|---------------7-|-----------------|-----------------|

|-----------------|-----------------|-----------------|-----------------|
|-7-----------7---|-7---------------|-7-----------7---|-7---------------|
|-----------------|---------------7-|-----------------|-----------------|
|-----------------|-----------------|-----------------|-----------------|

|-----------------|-----------------|-----------------|-----------------|
|-----------------|-----------------|-----------------|-----------------|
|-5h7-------------|-----------------|-5h7-------------|-----------------|
|-----------------|-----------------|-----------------|-------------7---|

VERSE
|-----------------|-----------------|-----------------|-----------------|
|-----------------|-----------------|-----------------|-----------------|
|-7-----------7---|-7-----------7-5-|-7-----------7---|-7---------------|
|-----------------|-----------------|-----------------|-----------------|

|-----------------|-----------------|-----------------|-----------------|
|-----------------|-----------------|-----------------|-----------------|
|-5-----------5---|-5-----------5---|-5-----------5---|-5-----------5-7-|
|-----------------|---------------7-|-----------------|-----------------|

|-----------------|-----------------|-----------------|-----------------|
|-7-----------7---|-7-----------5---|-7-----------7-5-|-7---------------|
|-----------------|---------7-------|-----------------|-----------------|
|-----------------|-----------------|-----------------|-----------------|

|-----------------|-----------------|-----------------|-----------------|
|-----------------|-----------------|-----------------|---------5-------|
|-5h7-------------|-----------------|-5h7-------------|-------------7---|
|-----------------|-----------------|-----------------|-----------------|

CHORUS
|-----------------|-----------------|-----------------|-----------------|
|---------7-------|---------7-------|---------9-------|---------9-------|
|-5---------------|-5-----------5---|-7---------------|-7-----------7---|
|-----------------|-----------------|-----------------|-----------------|

|-----------------|-----------------|-----------------|-----------------|
|---------7-------|---------7-------|---------9-------|-----------9-----|
|-5---------------|-5-----------5---|-7---------------|-7-----------7---|
|-----------------|-----------------|-----------------|-----------------|

|-----------------|-----------------|-----------------|-----------------|
|---------7-------|-----------------|-7---------------|-7-------7---9---|
|-5---------------|-5-------5---7---|---------7-------|-----------------|
|-----------------|-----------------|-----------------|-----------------|

|-----------------|-----------------|-----------------|-----------------|
|---------5-------|---------7-------|-----------------|-----------------|
|-----------------|-5-----------5---|-5h7-------------|-----------------|
|-8-----------8---|-----------------|-----------------|-----------------|

|-----------------|-----------------|-----------------|-----------------|
|-----------------|-----------------|-----------------|-----------------|
|-5h7-------------|-----------------|-5h7-------------|-----------------|
|-----------------|-----------------|-----------------|-----------------|

|-----------------|-------------4---|
|-----------------|-----------5-----|
|-5h7-------------|---------7-------|
|-----------------|-----------------|

VERSE
|-----------------|-----------------|-----------------|---------4-------|
|-----------------|-----------------|-----------------|-----------5-----|
|-7-----------7-5-|-7-----------7---|-7-----------7-5-|-7-----------7---|
|-----------------|-----------------|-----------------|-----------------|

|-----------------|-----------------|-----------------|-----------------|
|-----------------|-------------5h7-|-----------------|-----------------|
|-5-----------5---|-5---------------|-5-----------5---|-5-----------5-7-|
|-----------------|-----------------|-----------------|-----------------|

|-----------------|-----------------|-----------------|-----------------|
|-7-----------7---|-7-----------5---|-7-----------7-5-|-7---------------|
|-----------------|---------7-------|-----------------|-----------------|
|-----------------|-----------------|-----------------|-----------------|

|-----------------|-----------------|-----------------|-----------------|
|-----------------|-----------------|-----------------|-----------------|
|-5h7-------------|-----------------|-5h7-------------|---------7---\---|
|-----------------|-----------------|-----------------|-----------------|

BRIDGE
|-----------------|-----------------|-----------------|-----------------|
|-----------------|-----------------|-----------------|-----------------|
|-7---------------|-----------------|-----------------|-----------------|
|-----------------|-----------------|-----------------|-----------------|

|-----------------|-----------------|-----------------|-----------------|
|-----------------|-----------------|-----------------|-----------------|
|-----------------|-----------------|-----------------|-----------------|
|-----------------|-----------------|-----------------|-----------------|

|-----------------|-----------------|-----------------|-----------------|
|-----------------|-----------------|-----------------|-----------------|
|-5h7-------------|-----------------|-5h7-------------|---------5---7---|
|-----------------|-----------------|-----------------|-----------------|

CHORUS
|-----------------|-----------------|-----------------|-----------------|
|---------7-------|---------7-------|---------9-------|---------9-------|
|-5---------------|-5-----------5---|-7---------------|-7-----------7---|
|-----------------|-----------------|-----------------|-----------------|

|-----------------|-----------------|-----------------|-----------------|
|---------7-------|---------7-------|---------9-------|-----------9-----|
|-5---------------|-5-----------5---|-7---------------|-7-----------7---|
|-----------------|-----------------|-----------------|-----------------|

|-----------------|-----------------|-----------------|-----------------|
|---------7-------|-----------------|-7---------------|-7-------7---9---|
|-5---------------|-5-------5---7---|---------7-------|-----------------|
|-----------------|-----------------|-----------------|-----------------|

|-----------------|-----------------|-----------------|-----------------|
|---------5-------|---------7-------|-----------------|-----------------|
|-----------------|-5-----------5---|-5h7-----------7-|-7---7---7-7-7---|
|-8-----------8---|-----------------|-----------------|-----------------|

CHORUS
|-----------------|-----------------|-----------------|-----------------|
|---------7-------|---------7-------|---------9-------|---------9-------|
|-5---------------|-5-----------5---|-7---------------|-7-----------7---|
|-----------------|-----------------|-----------------|-----------------|

|-----------------|-----------------|-----------------|-9-9-9---9-------|
|---------7-------|---------7-------|---------9-------|-----------9-----|
|-5---------------|-5-----------5---|-7---------------|-------------7---|
|-----------------|-----------------|-----------------|-----------------|

|-----------------|-----------------|-----------------|-----------------|
|---------7-------|-----------------|-----------------|-----------------|
|-5---------------|-5-------5---7---|---------7-------|-----------------|
|-----------------|-----------------|-5---------------|-5-------5---7---|

|-----------------|-----------------|-----------------|-----------------|
|---------5-------|-----------------|-----------------|-----------------|
|-----------------|-----------------|-5-------5---5---|-5---5---5---5---|
|-8-----------8---|-8-------8---7-8-|-----------------|-----------------|

|-----------------|-----------------|-----------------|-----------------|
|-----------------|-----------------|-----------------|-----------------|
|-5h7-------------|-----------------|-5h7-------------|-----------------|
|-----------------|-----------------|-----------------|-----------------|

|-----------------|-----------------|-----------------|-----------------||
|-----------------|-----------------|-----------------|-----------------||
|-5h7-------------|-----------------|-5h7-------------|-7---------------||
|-----------------|-----------------|-----------------|-----------------||





Comments


Popular Bob Seger tabs & chords
Ain't Got No Money Chords
Fire Lake Chords
Like A Rock 1 Chords
Night Moves 3 Chords
Roll Me Away Chords
Still The Same 2 Chords
Turn The Page 1 Chords
Understanding Chords
Weve Got Tonight 3 Chords
Youll Accompany Me 1 Chords


Song lyrics



↑ Back to top | Tablatures and chords are parodies/interpretations of the original songs. You may use it for private study, scholarship, research or language learning purposes only
© 2014 AZChords.com Contact us | Privacy policy | DMCA | Add/correct tabs | Request tabs | Top 50 tabs