» » »

Bob Marley, Wake Up And Bass tabs (ver.1)

Artists:  A B C D E F G H I J K L M N O P Q R S T U V W X Y Z # 

Wake Up And Bass tabs (ver.1)

Bob Marley Tabs
 Rating:
4/5 (4 votes)
Wake Up And lessons Tabs too difficult? Try these video lessons and learn fast
1
                (Live)
G------------------------|    |-------------------------------|
D------------------------|    |--------------16-16-16---------|
A—-—-2-2-2-0-2-----------| x8 |-------------------------------|  
E--2---------------------|    |-------------------------------|

G------------------------|------2-4------------------------|
D------------------------|-2/4--------------2--------------|
A—-—-2-2-2-0-2-----------|--------------2-4----0-2---------| 
E--2---------------------|---------------------------------|

G------------------------|    |-------------------------------|
D------------------------|    |--------------------16-16-16---|
A—-—-2-2-2-0-2-----------| x2 |-------------------------------|  
E--2---------------------|    |-------------------------------|

G------------------------|    |-----------------16-16-16------|
D------------------------|    |-------------------------------|
A—-—-2-2-2-0-2-----------| x4 |-------------------------------|  
E--2---------------------|    |-------------------------------|

G------------------------|------2-4------------------------|
D------------------------|-2/4--------------2--------------|
A—-—-2-2-2-0-2-----------|--------------2-4----0-2---------| 
E--2---------------------|---------------------------------|

G------------------------|    
D------------------------|    
A—-—-2-2-2-0-2-----------| x2 
E--2---------------------|    

G------2-4------------------------|
D-2/4--------------2--------------|
A--------------2-4----0-2---------| 
E---------------------------------|

G------------------------|    |-------------------------------|
D------------------------|    |---------16-16-16--------------|
A—-—-2-2-2-0-2-----------| x3 |-------------------------------|  
E--2---------------------|    |-------------------------------|

G------------------------|    
D------------------------|    
A—-—-2-2-2-0-2-----------| x2 
E--2---------------------|    

G------2-4------------------------|
D-2h4--------------2--------------|
A--------------2-4----0-2---------| 
E---------------------------------|

G------------------------|    
D------------------------|    
A—-—-2-2-2-0-2-----------| x4 
E--2---------------------|    

G------2-4------------------------|
D-2h4--------------2--------------|
A--------------2-4----0-2---------| 
E---------------------------------|

Etc…. It's the same 3 riffs
            
Submit corrections

comments powered by Disqus
↑ Back to top | Bob Marley Bass for Wake Up And. Lyrics for acoustic guitar and electric guitar. 1 Tablatures and chords are parodies/interpretations of the original songs. You may use it for private study, scholarship, research or language learning purposes only