» » »

Bob Marley, Turn Your Lights Down Low Tabs (ver.1)

Artists:  A B C D E F G H I J K L M N O P Q R S T U V W X Y Z # 

Turn Your Lights Down Low Tabs (ver.1)

Bob Marley Tabs
 Rating:
4/5 (4 votes)
Turn Your Lights Down Low lessons Tabs too difficult? Try these video lessons and learn fast
1
                -------------------------------------------------------------------------------
-------------------------------------------------------------------------------


Tuning: Standard

Comments before-hand: This is the way I play it. And it's the exact rhythm and chord 
but it's a little higher pitched in a way, I guess. There's a few ways you can play this 
or if you want to strum it and sing along to it, that'll work too.

Whatever numbers are in brackets: (    ) mean that it is an option to play this. You 
have to, but it may improve the sound quality of the song. It is suggested though.


| /  slide up
| \  slide down
| h  hammer-on
| p  pull-off
| ~  vibrato
| +  harmonic
| x  Mute note
| * Let Ring

E -----------------------------------------------------------------------|
B -----------12*-------------10*-----------8*---(8-7h8p7)----------------|
G --------12--------------11------------9----------------(9-7)-----------|
D -----12------------12------------9-------------------------------------|
A --10----------9-------------7------------------------------------------|
E -----------------------------------------------------------------------|

E --------------------------------------------------------|
B ----------------------------------------5*--------------|
G -------------9*-----------7*----------5-----------------|
D ---------10------------9-----------7--------------------|
A -----10-------------9------------7----------------------|
E --8-------------7-------------5-------------------------|

Chord Progression (Alternative): You can play the song like this, or like the tab above. 
them if you find it necessary.

   G       D     Em    C
E -3*------2*----0*----0*--2*---0*--------------------------|
B -3-------3-----0-----1---3----1---------------------------|
G -0-------2-----0-----0---4----2---------------------------|
D -0-------0-----2-----2---4----2---------------------------|
A -2-------------2-----3---2----0---------------------------|
E -3------(2)----0------------------------------------------|

Repeat as much as needed. Enjoy and have fun with this!
            
Submit corrections

comments powered by Disqus
↑ Back to top | Bob Marley Tabs for Turn Your Lights Down Low. Lyrics for acoustic guitar and electric guitar. 1 Tablatures and chords are parodies/interpretations of the original songs. You may use it for private study, scholarship, research or language learning purposes only