>
 >
Them Belly Full

Them Belly Full Guitar Tabs

Bob Marley - Them Belly Full chords, tabs, tablatures, lyrics

Guitar lessons | Add/correct | Request | Top 50 tabs Artists:  A B C D E F G H I J K L M N O P Q R S T U V W X Y Z 0-9

Them Belly Full Guitar Tabs – Bob Marley

CD, Sheet music, Poster

Do you like Them Belly Full? Share with your friends now
Bass TabsBass Tabs v2Bass Tabs v3Tabs
...THEM BELLY FULL... by Bob Marley
---------------------..............

*from 'Natty Dread' (1974)*


Intro:

    A5     C5     Eb5      Am7
e|----------------------|--5---------------|
B|----------------------|--5---------------|
G|----------------------|--5---4h5---4--5--|
D|------------5------8--|--5---------------|
A|-----7---3------6-----|--7---------------|
E|--5-------------------|--5---------------|

    A5     G5     F5                Am7
e|-------------------------------|--5------------|
B|-------------------------------|--5------------|
G|-------------------------------|--5------------|
D|----------------------------7--|--5-------5h7--|
A|-----7------5------3---5h7-----|--7----7-------|
E|--5------3------1--------------|--5------------|

Am               F/A
 Na-na na na-na, na na na,
Am               F/A   Em/G
 Na-na na na-na, na na na.

Verse 1:

Am                       F/A
 Them belly full, but we hungry;
Am                  F/A   Em/G
 A hungry mob is an angry mob.
Am                      F/A
 A rain a-fall, but the dirt it tough;
Am                     F/A      Em/G
 A pot-a-cook, but the food no 'nough.

Chorus 1:

             Am            G      Am
You're gonna dance, to Jah music, dance.
            Am            G      Am
We're gonna dance, to Jah music, dance.

Am           G            Am
 Forget your troubles and dance,
Am           G           Am
 Forget your sorrows and dance.
Am           G            Am
 Forget your sickness and dance,
Am           G            Am
 Forget your weakness and dance.

Verse 2:

Am              F/A
 Cost of livin' gets so high,
Am                  F/A          Em/G
 Rich and poor they start to cry:
Am            F/A 
 Now the weak must get strong;
         Am                 F/A     Em/G
They say, "Oh, what a tribu-lation!"

Am                       F/A
 Them belly full, but we hungry;
Am                  F/A   Em/G
 A hungry mob is an angry mob.
Am                      F/A
 A rain a-fall, but the dirt it tough;
Am                     F/A      Em/G
 A pot-a-cook, but the food no 'nough.

Chorus 2:

            Am            G      Am
We're gonna chuck, to Jah music, chuckin'.
      Am               G            Am
We're chuckin', to Jah music; we're chuckin'.

Guitar Solo:

       Am        G                 Am
e|--------------------5-5-------|-----7-5------------5-----5-5--|
B|-------------------------5b8--|--5-------5b8--8-5-----8-------|
G|---------------5b7------------|-------------------------------|
D|--7--5-5-7--7-----------------|-------------------------------|
A|------------------------------|-------------------------------|
E|------------------------------|-------------------------------|

                              G               Am
e|--8---------10/12--5-----5-------------|------------------------------|
B|-----10-10------------8-----7----------|------------------------------|
G|-------------------------------7--5h7--|--7-5-----9-7h5---------------|
D|---------------------------------------|-------7---------7------------|
A|---------------------------------------|--------------------7/5-3-----|
E|---------------------------------------|---------------------------5--|

                G                     Am
e|------------------------------|-----5---------------------------------|
B|------------------------------|--5-----5-8-----5----------------------|
G|----5h7-5-----5h7--5-----5h7--|-------------7-----5-7-5---------------|
D|--7--------7----------7-------|--------------------------7------------|
A|------------------------------|-----------------------------5-3-------|
E|------------------------------|----------------------------------5-3--|

               G                        Am
e|----------------------------|-------------------------------|
B|----------------------------|------------------------8-10b--|
G|----------------------5-----|--------------5--7/9-9---------|
D|--5-7-----5-----5--------5--|--7/9\7--5-7-------------------|
A|-------0-----0-----0--------|-------------------------------|
E|----------------------------|-------------------------------|

Coda:

Am                      F/A
 A-belly full, but them hungry;
Am                  F/A   Em/G
 A hungry mob is an angry mob.
Am                      F/A
 A rain a-fall, but the dirt it tough;
Am                     F/A      Em/G
 A pot-a-cook, but the food no 'nough.

Am                   F/A
 A hungry man, is an angry man,
Am                      F/A     Em/G
 A rain a-fall, but the dirt it tough.
Am                     F/A
 A pot-a-cook, but the food no 'nough,
Am                      F/A     Em/G
 A rain a-fall, but the dirt it tough.

Am                     F/A
 A pot-a-cook, but the food no 'nough,
Am                  F/A   Em/G
 A hungry mob is an angry mob.

(Fade)


CHORD DIAGRAMS:
---------------

   A5      C5      Eb5     Am7     G5

 EADGBE  EADGBE  EADGBE  EADGBE  EADGBE
 57xxxx  x35xxx  x68xxx  575555  35xxxx

   F5      Am      F/A    Em/G     G

 EADGBE  EADGBE  EADGBE  EADGBE  EADGBE
 13xxxx  575555  xx756x  xx545x  355433





Comments


Popular Bob Marley tabs & chords
Is This Love 2 Bass Tabs
Looking In Your Big Brown Eyes Bass Tabs
One Love 1 Chords
Waiting In Vain 1 Chords
Jammin' Tabs
Johnny Was Tabs
Redemption Song Intro 3 Tabs
So Jah Say Tabs
Roots Rock Reggae Ukulele
Waiting In Vain Ukulele


Song lyrics



↑ Back to top | Tablatures and chords are parodies/interpretations of the original songs. You may use it for private study, scholarship, research or language learning purposes only
© 2014 AZChords.com Contact us | Privacy policy | DMCA | Add/correct tabs | Request tabs | Top 50 tabs