» » »

Bob Marley, Sun Is Shining Bass tabs (ver.3)

Artists:  A B C D E F G H I J K L M N O P Q R S T U V W X Y Z # 

Sun Is Shining Bass tabs (ver.3)

Bob Marley Tabs
 Rating:
4/5 (4 votes)
Sun Is Shining lessons Tabs too difficult? Try these video lessons and learn fast
1
                    Title - Sun is Shining
    Artist - Bob Marley and the Wailers
    Album - Kaya

     intro;
  G|--------------------------------------------------|
  D|----------------6-6-6-6--6---------------6-6-6-6--|
  A|---6-6-6--6------------------6-6-6--6-------------|
  E|--------------------------------------------------|

     riff 3;
  G|-------------------------------------------------------|
  D|-----6--------------------------6----------------------|
  A|---------6-6----------6-4-6---------6-6---------6-4-6--|
  E|---------------6-6------------------------6-6----------|

  G|-----------------------------------------------|
  D|-----6--------------------------6--------------|
  A|---------6-6----------6-4-6--------6-6---------|
  E|---------------6-6------------------------6-6--|

     riff 3;
  G|---------------------------------------------------------------|
  D|---------------------------------------------------------------|
  A|-----6-4-6--------6-4-6-----------6-4-6--------6-4-6-----------|
  E|-------------4-4----------4-4-4-----------4-4----------4-4-4---|

     repeat thro'out
            
Submit corrections

comments powered by Disqus
↑ Back to top | Bob Marley Bass for Sun Is Shining. Lyrics for acoustic guitar and electric guitar. 1 Tablatures and chords are parodies/interpretations of the original songs. You may use it for private study, scholarship, research or language learning purposes only