» » »

Stir It Up Tabs (ver.2)

Artists:  A B C D E F G H I J K L M N O P Q R S T U V W X Y Z # 

Stir It Up Tabs (ver.2)

Bob Marley
Rating:
0/5 (0 votes)

Hard to play? Try these video lessons and learn fast.
                Bob Marley - Stir it up
		
		by mike lehman
\
ok so here it is. 

STANDARD TUNING

each chord gets an up and a down stroke for each single chord.

Chords: A, D, E

	A	D	E
e|------0-------2-------0-----|
B|------2-------3-------0-----|
G|------2-------2-------1-----|
D|------2-------0-------2-----|
A|------0---------------2-----|
E|----------------------0-----|

A  /  /  /  D  /  E  /  repeat:|
Stir it up, little darling
Stir it up, come on baby
Come on and stir it up, little darling
Stir it up, oh

get the lyrics at sing365.com

thats the whole song..

remember, each / mean dowstroke and upstroke.
 (listen to the song first)

bass line:
	  G |------------------------------
          D |--------------4-7-(4)----6-9--
          A |---4-55-4--55---------77------
          E |-5----------------------------



palm mute all of this or use a wah-wah or something, i palm mute it

thanks bob....
            
Hard to play? Try these video lessons and learn fast. | Correct




comments powered by Disqus
↑ Back to top | Tablatures and chords are parodies/interpretations of the original songs. You may use it for private study, scholarship, research or language learning purposes only