» » »

Bob Marley, So Much Trouble In The World Bass tabs (ver.2)

Artists:  A B C D E F G H I J K L M N O P Q R S T U V W X Y Z # 

So Much Trouble In The World Bass tabs (ver.2)

Bob Marley Tabs
 Rating:
4/5 (4 votes)
So Much Trouble In The World lessons Tabs too difficult? Try these video lessons and learn fast
1
                Song Name- So Much Trouble In the World
Artist- Bob Marley
Album- Disc Four (Songs of Freedom Box Set)

Intro x2
G|12-13-14---------|
D|---------12-13-14|
A|-----------------|
E|-----------------|

Verse x5
G|--------------------------------------|
D|--------------------------------------|
A|-----2-3-2----------7-----5-----5---5-|
E|-3-5-------5-3-5-5------5-----5---5---|

Post Chorus x1
G|------------------------------------------|
D|--------------------------------------5h7-|
A|-----2-3-2----------7-----5-----3-4-5-----|
E|-3-5-------5-3-5-5------5-----5-----------|

Chorus
G|------------------------------------9--------|
D|-----------------------------------------5h7-|
A|------------------3----8-8-8--8-7-7---7------|
E|5--5-5-3-5--5-3-5---5------------------------|
            
Submit corrections

comments powered by Disqus
↑ Back to top | Bob Marley Bass for So Much Trouble In The World. Lyrics for acoustic guitar and electric guitar. 1 Tablatures and chords are parodies/interpretations of the original songs. You may use it for private study, scholarship, research or language learning purposes only