» » »

Small Axe Bass tabs (ver.1)

Artists:  A B C D E F G H I J K L M N O P Q R S T U V W X Y Z # 

Small Axe Bass tabs (ver.1)

Bob Marley
Rating:
0/5 (0 votes)

Hard to play? Try these video lessons and learn fast.
                Artist - Bob Marley & the Wailers
Title - Small Axe
Bass Tab
  
             
intro (play twice) 
G|-----------------------------|
D|-----7-----------------------|
A|--5-5---------------4--------|
E|-------5--------5-7---7-7-5--|


verse (play 4 times)
G|---------------------------------------9-7---------|
D|------------------7-7----------------------9-6-----|
A|--5----------999-7----------7------------------97--|
E|----7-5--------------9--------9-7------------------|


chorus
G|----------------------------------------------------------------|
D|-----7------------------------------------7---------------------|
A|--5-7---------------4----------------4-5-7-------------4--------|
E|-------5--------5-7---7-775------5-7--------5------5-7---7-775--|


play this into next 2 verses
G|---------|
D|---------|
A|------4--|
E|--5-7----|

repeat chorus, verse and play out on chorus
            
Hard to play? Try these video lessons and learn fast. | Correct




comments powered by Disqus
↑ Back to top | Tablatures and chords are parodies/interpretations of the original songs. You may use it for private study, scholarship, research or language learning purposes only