» » »

Satisfy My Soul Bass tabs (ver.2)

Artists:  A B C D E F G H I J K L M N O P Q R S T U V W X Y Z # 

Satisfy My Soul Bass tabs (ver.2)

Bob Marley
Rating:
0/5 (0 votes)

Hard to play? Try these video lessons and learn fast.
                                      Satisfy My Soul
                       Bob Marley

Originally played by Aston "Family Man" Barrett

Accurate?  Well, pretty close, but it'll get you through the gig until you can 
figure a better way to play it. Feel free to send comments/corrections to my 
spammable address,  beatnixx2004(at)yahoo(dot)com.

Enjoy
- Tyner



      |-----3-----|  |--3-|  |--3-|     |--3-|  3      3             
      H        E  E  Q    E  Q    E     Q    E  Q.     H.            
G||----------------------------------|------------------------------|
D||*-----------------5----5--5-------|------------------------------|
A||*--------------5---------------2--|-------2--2------2------------|
E||----------------------------------|------------------------------|


  |-----3-----|  |--3-|  |--3-|     |--3-|  3      3               
  H        E  E  Q    E  Q    E     Q    E  Q.     H.            6x
---------------------------------|-------------------------------||
---------------------------------|------------------------------*||
--------------5---------------5--|----------5------5------------*||
-----------------5----5--5-------|-------5-----------------------||


   3      |--3-|  |--3-|  3         |--3-|  |--3-|  |--3-|  |--3-|     
   Q.     Q    E  Q    E  Q.        Q    E  Q    E  Q    E  Q    E     
---------------------------------|-----------------------------------||
*--------------------------------|----------------------------------*||
*---------3----3-----------------|--3-------3-------3-------3----3--*||
------------------3----3---------|-------3-------3-------3-----------||


   3      |--3-|  |--3-|  3         |--3-|  |--3-|  |--3-|  |--3-|     
   Q.     Q    E  Q    E  Q.        Q    E  Q    E  Q    E  Q    E     
---------------------------------|-----------------------------------||
*--------------------------------|----------------------------------*||
*---------5----5-----------------|--5-------5-------5-------5----5--*||
------------------5----5---------|-------5-------5-------5-----------||


   |-----3-----|  |--3-|  |--3-|     |--3-|  |--3-|  |--3--|  |--3--|   
   H        E  E  Q    E  Q    E     Q    E  Q    E  E  E  E  E  E  E   
----------------------------------|------------------------------------|
*--------------2---------------2--|-------2----------2--------2-----2--|
*----------------------2--3-------|---------------3--------3-----------|
------------------5---------------|------------------------------------|


  |--3-|  |--3-|  |--3-|  3         |--3-|  |--3-|  |-3|    |-3|       
  Q    E  Q    E  Q    E  Q.        Q    E  Q    E  E  Q    E  Q       
---------------------------------|-----------------------------------||
---------------------------------|----------------------------------*||
-------5--5----5-----------------|--5----5--5-------5-------5-------*||
------------------5----5---------|---------------5-------------------||


  |--3-|  |--3-|  |--3-|  3         |--3-|  |--3-|  |-3|    |-3|     
  Q    E  Q    E  Q    E  Q.        Q    E  Q    E  E  Q    E  Q     
---------------------------------|----------------------------------|
---------------------------------|----------------------------------|
-------3--3----3-----------------|--3----3--3-------3-------3-------|
------------------3----3---------|---------------3------------------|


  3      |--3-|  |--3-|  3         |--3-|  |--3-|  |-3|    |-3|     
  Q.     Q    E  Q    E  Q.        Q    E  Q    E  E  Q    E  Q     
--------------------------------|----------------------------------|
--------------------------------|----------------------------------|
-----------------5----5---------|--5----5--5-------5-------5-------|
---------3----3-----------------|---------------3------------------|


  |--3-|  |--3-|  |--3-|  |-3|       |--3-|  |--3-|  |--3-|  |-3|     
  Q    E  Q    E  Q    E  E  Q       Q    E  Q    E  Q    E  E  Q     
----------------------------------|----------------------------------|
----------------------------------|----------------------------------|
-------3--3----3----------3-------|-------5--5----5----------5-------|
------------------3----3----------|------------------5----5----------|


  |--3-|  |--3-|  |--3-|  |-3|       3      3      |--3-|  |--3-|    
  Q    E  Q    E  Q    E  E  Q       Q.     Q.     Q    E  Q    E    
----------------------------------|--------------------------------||
----------------------------------|--------------------------------||
------------------5----5----------|--------------------------------||
-------3--3----3----------3-------|----------------3-------2-------||




Duration Legend
---------------
W - whole
H - half
Q - quarter
E - 8th
S - 16th
T - 32nd
X - 64th
. - note dotted
|-n-|  - n-tuplets
            
Hard to play? Try these video lessons and learn fast. | Correct




comments powered by Disqus
↑ Back to top | Tablatures and chords are parodies/interpretations of the original songs. You may use it for private study, scholarship, research or language learning purposes only