» » »

Bob Marley, Satisfy My Soul Bass tabs (ver.1)

Artists:  A B C D E F G H I J K L M N O P Q R S T U V W X Y Z # 

Satisfy My Soul Bass tabs (ver.1)

Bob Marley Tabs
 Rating:
4/5 (4 votes)
Satisfy My Soul lessons Tabs too difficult? Try these video lessons and learn fast
                Title;satisfy my soul (original)
Artist;bob marley & the wailers



  intro 
G---------------------|---------------------|
D---77----------------|--77-----------------|
A--7---------9---7-77-|-7---------9---7-77--|
E-----9-99----77------|----9-99----77-------|

  play X2
G---------------------|---------------------|
D---77--------99------|--77--------99-------|
A--7---------9---7-77-|-7---------9---7-77--|
E-----9-99------------|----9-99-------------|




  bridge play X2
G------------------------------|-------------------------------|  
D----7777777-7-----7777777-7---|----9999999-9------9999999-9---|
A--5--------5----5--------5----|--7--------7-----7--------7----|
E--------------5-------------5-|--------------7--------------7-|

 


  verse/chorus
G---------------------|---------------------|
D---99-9--------------|--99-9---------------|
A--9-----99---77-7----|-9-----99---77-7-----|
E------------7-----77-|-----------7-----77--|

G---------------------|---------------------|
D---99-9--------------|------------77-7-----|
A--9-----99---77-7----|--55-5-----7-----77--|
E------------7-----77-|-5-----55------------|

G---------------------|---------------------|
D-------------77-7----|--99-9---------------|
A---55-5-----7-----77-|-9----99----77-7-----|
E--5-----55-----------|-----------7-----77--|

G---------------------|---------------------|
D---99-9--------------|--99-9---------------|
A--9-----99---77-7----|-9-----99---77-7-----|
E------------7-----77-|-----------7-----77--|


G---------------------|
D---99-9--------------|
A--9-----99---77-7----|
E------------7-----77-|

  repeat bridge then verse/chorus 
  
            
Submit corrections

comments powered by Disqus
↑ Back to top | Bob Marley Bass for Satisfy My Soul. Lyrics for acoustic guitar and electric guitar. Tablatures and chords are parodies/interpretations of the original songs. You may use it for private study, scholarship, research or language learning purposes only