» » »

Bob Marley, Redemption Song Tabs (ver.4)

Artists:  A B C D E F G H I J K L M N O P Q R S T U V W X Y Z # 

Redemption Song Tabs (ver.4)

Bob Marley Tabs
Rating:
0/5 (0 votes)
Redemption Song lessons Tabs too difficult? Try these video lessons and learn fast
                Bob Marley
Redemption Song

Great acoustic song. ENJOY!
Intro:
|--------------------------------------------------------|
|--------------------------------------------------------|
|--------------------------------------------------------|
|-------------0h2-0-------------0------------------------|
|---0-2---2h3-------2-----0-0h2---2-2h3-0----------------|
|3------3--------------3-------------------3-------------|

|--------------------------------------------------------|
|--------------------------------------------------------|
|--------------------------------------------------------|
|-------------0h2-0-------------0------------------------|
|---0-2---2h3-------2-----0-0h2-----2h3-0----------------|
|3------3--------------3-------------------3-------------|

	Old pirates, yes, they rob I...
|--------------------------------------------------------|
|-0--0-0--0-0--0--0--0-0----1---1-------1--1-1-1---------|
|-0--0-0--0-0--0--0--0-0----0---0-------2--2-2-2---------|
|-0--0-0--0-0--2--2--2-2----2---0-------2--2-2-2---------|
|-2--2-2--2-2--2--2--2-2--3---2---0-0-0-0--0-0-0---------|
|-3--3-3--3-3--0--0--0-0--------------------------3------| 

	Minutes after they took I...	
|--------------------------------------------------------|
|-0--0-0--0-0--0--0--0-0----1---1-------1--1-1-1---------|
|-0--0-0--0-0--0--0--0-0----0---0-------2--2-2-2---------|
|-0--0-0--0-0--2--2--2-2----2---0-------2--2-2-2---------|
|-2--2-2--2-2--2--2--2-2--3---2---0-0-0-0--0-0-0---------|
|-3--3-3--3-3--0--0--0-0--------------------------3------|

	But my hand was made strong...
|----------------------------------------------------------|
|-0--0-0-0-0-0---0--0--0-0----1---1-----1-1-1-1-1----------|
|-0--0-0-0-0-0---0--0--0-0----0---0-----2-2-2-2-2----------|
|-0--0-0-0-0-0---2--2--2-2----2---0-----2-2-2-2-2----------|
|-2--2-2-2-2-2---2--2--2-2--3---2----0--0-0-0-0-0----------|
|-3--3-3-3-3-3---0--0--0-0-------------------------3-------|

	We forward in this generation...
|-----------------------------------------2-2-2-2-2-2------|
|-0--0-0-0-0-0---0--0--0-0----1-1-1-1-1---3-3-3-3-3-3------|
|-0--0-0-0-0-0---0--0--0-0----0-0-0-0-0---2-2-2-2-2-2------|
|-0--0-0-0-0-0---2--2--2-2----2-2-2-2-2-0-0-0-0-0-0-0------|
|-2--2-2-2-2-2---2--2--2-2--3------------------------------|
|-3--3-3-3-3-3---0--0--0-0---------------------------------|

	Won't you help to sing...
|2-2-2-2-2-2-2----------------------2-2--------------------|
|3-3-3-3-3-3-3--0-0-0-0--0----1-1---3-3-0-0-0-0--0-0-------|
|2-2-2-2-2-2-2--0-0-0-0--0----0-0---2-2-0-0-0-0--0-0--0----|
|0-0-0-0-0-0-0--0-0-0-0--0----2-2-0-----0-0-0-0--0-0--2----|
|---------------2-2-2-2--2--3-----------2-2-2-2--2-2--3----|
|---------------3-3-3-3--3--------------3-3-3-3--3-3-------|

	'Cause all I ever have...  Redemption songs;
|-------2-2-2-----------------------2-2-2------------------|
|1-1-1--3-3-3--0-0-0-0--0-0--1-1-1--3-3-3--0-0-0-0--0-0----|
|0-0-0--2-2-2--0-0-0-0--0-0--0-0-0--2-2-2--0-0-0-0--0-0--0-|
|2-2-2--0-0-0--0-0-0-0--0-0--2-2-2--0-0-0--0-0-0-0--0-0--2-|
|3-------------2-2-2-2--2-2--3-------------2-2-2-2--2-2--3-|
|--------------3-3-3-3--3-3----------------3-2-3-3--3-3----|

	Redemption songs.	    Emancipate yourselves from 
|-------2-2-2-----------------------2-2-2-2----------------|
|1-1-1--3-3-3--0-0-0-0--0-0--1-1-1--3-3-3-3--0-------------|
|0-0-0--2-2-2--0-0-0-0--0-0--0-0-0--2-2-2-2--0-------------|
|2-2-2--0-0-0--0-0-0-0--0-0--2-2-2--0-0-0-0--0-------------|
|3-------------2-2-2-2--2-2--3---------------2-------------|
|--------------3-3-3-3--3-3------------------3-------------|

  mental slavery;...
|------------------------------------------------------------|
|0-0-0-0-0-0-0--0-0-0-0-0-0-0------1-----1-------1---1-1-1---|
|0-0-0-0-0-0-0--0-0-0-0-0-0-0------0-----0-------2---2-2-2---|
|0-0-0-0-0-0-0--2-2-2-2-2-2-2------2-----2-------2---2-2-2---|
|2-2-2-2-2-2-2--2-2-2-2-2-2-2--3-3---2-2---0-0-0-0-0-0-0-0---|
|3-3-3-3-3-3-3--0-0-0-0-0-0-0------------------------------3-|

	Have no fear for atomic energy,...
|---------------------------------------------2-2-2-2-2-2-2--|
|0-0-0-0-0-0-0--0-0-0-0-0-0-0------1-----1----3-3-3-3-3-3-3--|
|0-0-0-0-0-0-0--0-0-0-0-0-0-0------0-----0----2-2-2-2-2-2-2--|
|0-0-0-0-0-0-0--2-2-2-2-2-2-2------2-----2--0-0-0-0-0-0-0-0--|
|2-2-2-2-2-2-2--2-2-2-2-2-2-2--3-3---2-2---------------------|
|3-3-3-3-3-3-3--0-0-0-0-0-0-0-------------------------------3|

	How long shall they kill our prophets,...
|------------------------------------------------------------|
|0-0-0-0-0-0-0--0-0-0-0-0-0-0------1-----1---1-1-1-1-1-1-1---|
|0-0-0-0-0-0-0--0-0-0-0-0-0-0------0-----0---2-2-2-2-2-2-2---|
|0-0-0-0-0-0-0--2-2-2-2-2-2-2------2-----2---2-2-2-2-2-2-2---|
|2-2-2-2-2-2-2--2-2-2-2-2-2-2--3-3---2-2---0-0-0-0-0-0-0-0---|
|3-3-3-3-3-3-3--0-0-0-0-0-0-0------------------------------3-|

 Some say it's just a part of it,...
|--------------------------------------------2-2-2-2-2-2-2------|
|-0--0-0-0-0-0---0-0-0-0--0-0---1-1---1-1----3-3-3-3-3-3-3------|
|-0--0-0-0-0-0---0-0-0-0--0-0---0-0---0-0----2-2-2-2-2-2-2------|
|-0--0-0-0-0-0---2-2-2-2--2-2---2-2---2-2--0-0-0-0-0-0-0-0------|
|-2--2-2-2-2-2---2-2-2-2--2-2-3-----2---------------------------|
|-3--3-3-3-3-3---0-0-0-0--0-0-----------------------------------|

 Won't you help to sing...
|2-2-2--2-2-2-----------------------2-2------------------|
|3-3-3--3-3-3--0-0-0-0--0-0---1-1---3-3-0-0-0-0--0-0-----|
|2-2-2--2-2-2--0-0-0-0--0-0---0-0---2-2-0-0-0-0--0-0--0--|
|0-0-0--0-0-0--0-0-0-0--0-0---2-2-0-----0-0-0-0--0-0--2--|
|--------------2-2-2-2--2-2-3-----------2-2-2-2--2-2--3--|
|--------------3-3-3-3--3-3-------------3-3-3-3--3-3-----|

 'Cause all I ever have...
|-------2-2-2-----------------------2-2-2----------------|
|1-1-1--3-3-3--0-0-0-0--0-0--1-1-1--3-3-3-0-0-0-0--0-0--0|
|0-0-0--2-2-2--0-0-0-0--0-0--0-0-0--2-2-2-0-0-0-0--0-0--0|
|2-2-2--0-0-0--0-0-0-0--0-0--2-2-2--0-0-0-0-0-0-0--0-0--0|
|3-------------2-2-2-2--2-2--3------------2-2-2-2--2-2--2|
|--------------3-3-3-3--3-3---------------3-3-3-3--3-3--3|


SOLO:
|-----------------------2-2-2-2---|-----------------------2-2-2-2---|
|8-x-x-8-x-x-8-x-x-1-1--3-3-3-3-0-|8-x-x-8-x-x-8-x-x-1-1--3-3-3-3-0-|
|9-x-x-9-x-x-9-x-x-0-0--2-2-2-2-0-|9-x-x-9-x-x-9-x-x-0-0--2-2-2-2-0-|
|9-x-x-9-x-x-9-x-x-2-2--0-0-0-0-0-|9-x-x-9-x-x-9-x-x-2-2--0-0-0-0-0-|
|7-x-x-7-x-x-7-x-x-3-3------------|7-x-x-7-x-x-7-x-x-3-3------------|
|---------------------------------|---------------------------------| (x2)

 Emancipate yourselves from mental slavery...
|---------------------------------------------------------------|
|0-0-0-0-0-0-0--0-0-0-0-0-0-0----1-1---1-1----1-1-1-----1-1-1---|
|0-0-0-0-0-0-0--0-0-0-0-0-0-0----0-0---0-0----2-2-2-----2-2-2---|
|0-0-0-0-0-0-0--2-2-2-2-2-2-2----2-2---2-2----2-2-2-----2-2-2---|
|2-2-2-2-2-2-2--2-2-2-2-2-2-2--3-----2-----0--0-0-0--0--0-0-0---|
|3-3-3-3-3-3-3--0-0-0-0-0-0-0---------------------------------3-|

 Wo! Have no fear for atomic energy,...
|--------------------------------------------2-2-2-2-2-2-2---|
|0-0-0-0-0-0-0--0-0-0-0-0-0-0------1-----1---3-3-3-3-3-3-3---|
|0-0-0-0-0-0-0--0-0-0-0-0-0-0------0-----0---2-2-2-2-2-2-2---|
|0-0-0-0-0-0-0--2-2-2-2-2-2-2------2-----2-0-0-0-0-0-0-0-0---|
|2-2-2-2-2-2-2--2-2-2-2-2-2-2--3-3---2-2---------------------|
|3-3-3-3-3-3-3--0-0-0-0-0-0-0------------------------------3-|

 How long shall they kill our prophets,...
|---------------------------------------------------------------|
|0-0-0-0-0-0-0--0-0-0-0-0-0-0----1-1---1-1----1-1-1-----1-0-----|
|0-0-0-0-0-0-0--0-0-0-0-0-0-0----0-0---0-0----2-2-2-----2-0-----|
|0-0-0-0-0-0-0--2-2-2-2-2-2-0----2-2---2-2----2-2-2-----2-0-----|
|2-2-2-2-2-2-0--2-2-2-2-2-2-0--3-----2-----0--0-0-0--0--0-0-----|
|3-3-3-3-3-3----0-0-0-0-0-0-----------------------------------3-|

 Yes, some say it's just a part of it...
|-------------------------------------------2-2-2-2-2-2-2------|
|-0--0-0-0-0----0-0-0-0--0-0---1-1---1-1----3-3-3-3-3-3-3------|
|-0--0-0-0-0----0-0-0-0--0-0---0-0---0-0----2-2-2-2-2-2-2------|
|-0--0-0-0-0----2-2-2-2--2-2---2-2---2-2--0-0-0-0-0-0-0-0------|
|-2--2-2-2-0----2-2-2-2--2-2-3-----2---------------------------|
|-3--3-3-3------0-0-0-0--0-0-----------------------------------|

 Won't you help to sing...
|2-2-2--2-2-2-----------------------2-2------------------|
|3-3-3--3-3-3--0-0-0-0--0-0---1-1---3-3-0-0-0-0--0-0-----|
|2-2-2--2-2-2--0-0-0-0--0-0---0-0---2-2-0-0-0-0--0-0--0--|
|0-0-0--0-0-0--0-0-0-0--0-0---2-2-0-----0-0-0-0--0-0--2--|
|--------------2-2-2-2--2-2-3-----------2-2-2-2--2-2--3--|
|--------------3-3-3-3--3-3-------------3-3-3-3--3-3-----|

 'Cause all I ever had...
|-------2-2-2-----------------------2-2-2------------------|
|1-1-1--3-3-3--0-0-0-0--0-0--1-1-1--3-3-3--0-0-0-0--0-0----|
|0-0-0--2-2-2--0-0-0-0--0-0--0-0-0--2-2-2--0-0-0-0--0-0--0-|
|2-2-2--0-0-0--2-2-2-2--2-2--2-2-2--0-0-0--0-0-0-0--0-0--2-|
|3-------------2-2-2-2--2-2--3-------------2-2-2-2--2-2--3-|
|--------------0-0-0-0--0-0----------------3-2-3-3--3-3----|

 All I ever had...
|-------2-2-2-----------------------2-2-2------------------|
|1-1-1--3-3-3--0-0-0-0--0-0--1-1-1--3-3-3--0-0-0-0--0-0----|
|0-0-0--2-2-2--0-0-0-0--0-0--0-0-0--2-2-2--0-0-0-0--0-0--0-|
|2-2-2--0-0-0--2-2-2-2--2-2--2-2-2--0-0-0--0-0-0-0--0-0--2-|
|3-------------2-2-2-2--2-2--3-------------2-2-2-2--2-2--3-|
|--------------0-0-0-0--0-0----------------3-2-3-3--3-3----|

 These songs of freedom,...
|-------2-2-2-----------------------2-2-2------------------|
|1-1-1--3-3-3--0-0-0-0--0-0--1-1-1--3-3-3--0-0-0-0--0-0----|
|0-0-0--2-2-2--0-0-0-0--0-0--0-0-0--2-2-2--0-0-0-0--0-0--0-|
|2-2-2--0-0-0--2-2-2-2--2-2--2-2-2--0-0-0--0-0-0-0--0-0--2-|
|3-------------2-2-2-2--2-2--3-------------2-2-2-2--2-2--3-|
|--------------0-0-0-0--0-0----------------3-2-3-3--3-3----|

Outro: (3:37)
|------------------0-0-0--0-0-x-x-0--x-0-x-0-x-0-x-2-x-2-x-2-x--2-2-2-2-2--|
|1-1-1--1-1-1-1----1-1-1--1-1-x-x-1--x-1-x-1-x-1-x-1-x-1-x-1-x--1-1-1-1-1--|
|0-0-0--0-0-0-0----2-2-2--2-2-x-x-2--x-2-x-2-x-2-x-2-x-2-x-2-x--2-2-2-2-2--|
|2-2-2--0-0-0-0----2-2-2--2-2-x-x-2--x-2-x-2-x-2-x-2-x-2-x-2-x--2-2-2-2-2--|
|3------2--------0---------------------------------------------------------|
|--------------------------------------------------------------------------|
            
Submit corrections

comments powered by Disqus
↑ Back to top | Bob Marley Tabs for Redemption Song. Lyrics for acoustic guitar and electric guitar. Tablatures and chords are parodies/interpretations of the original songs. You may use it for private study, scholarship, research or language learning purposes only