>
 >
Redempition Song

Redempition Song Guitar Tabs

Bob Marley - Redempition Song chords, tabs, tablatures, lyrics

Guitar lessons | Add/correct | Request | Top 50 tabs Artists:  A B C D E F G H I J K L M N O P Q R S T U V W X Y Z 0-9

Redempition Song Guitar Tabs – Bob Marley

CD, Sheet music, Poster

Do you like Redempition Song? Share with your friends now
Bass TabsChordsTabs
                                Redemption Song - Bob Marley                                


                                                                      
Acoustic Guitar

Tuning=Standard

E A D G B e

Tempo=105 bpm

     Q    E  E  Q    Q       Q.     E  E  E  E  E     Q    E  E  E  Q    E   
E||-----------------------|------------------------|------------------------|
B||-----------------------|------------------------|------------------------|
G||-----------------------|------------------------|------------------------|
D||-----------------------|---------2--0-----------|----------------0-------|
A||----------0--2---------|--3------------3--2--0--|----------0--2-------2--|
E||--3----3----------3----|------------------------|--3----3----------------|


  E  E  Q    H           
-----------------------||
-----------------------||
----------------------*||
----------------------*||
--3--2--0--------------||
-------------3---------||


                           
   G                                                              
   E.  S                                       E  Q    E  S S E   
---3---3---------------------------------------x--3----3--3-3-3--|
---3---3---------------------------------------x--3----3--3-3-3--|
*--0---0---------------------------------------x--0----0--0-0-0--|
*--0---0---------------------------------------x--0----0--0-0-0--|
---2---2---------------------------------------x--2----2--2-2-2--|
---3---3---------------------------------------x--3----3--3-3-3--|


        Use the right hand for to muffle                 
  Em                                                     
  E.  S E                                Q    E  S S E   
--0---0-x--------------------------------0----0--0-0-0--|
--0---0-x--------------------------------0----0--0-0-0--|
--0---0-x--------------------------------0----0--0-0-0--|
--2---2-x--------------------------------2----2--2-2-2--|
--2---2-x--------------------------------2----2--2-2-2--|
--0---0-x--------------------------------0----0--0-0-0--|


     C                                                
             G/B           Am                         
  Q    E  E  Q    E  E     E.  S E  Q    E  S S E   3x
--0----0--0--3----3--3--|--0---0-x--0----0--0-0-0---||
--1----1--1--3----3--3--|--1---1-x--1----1--1-1-1---||
--0----0--0--0----0--0--|--2---2-x--2----2--2-2-2--*||
--2----2--2--0----0--0--|--2---2-x--2----2--2-2-2--*||
--3----3--3--2----2--2--|--0---0-x--0----0--0-0-0---||
------------------------|---------------------------||


  G                          Em                       
  E.  S E  Q    E  S S E     E.  S E  Q    E  S S E   
--3---3-x--3----3--3-3-3--|--0---0-x--0----0--0-0-0--|
--3---3-x--3----3--3-3-3--|--0---0-x--0----0--0-0-0--|
--0---0-x--0----0--0-0-0--|--0---0-x--0----0--0-0-0--|
--0---0-x--0----0--0-0-0--|--2---2-x--2----2--2-2-2--|
--2---2-x--2----2--2-2-2--|--2---2-x--2----2--2-2-2--|
--3---3-x--3----3--3-3-3--|--0---0-x--0----0--0-0-0--|


  C                          D                        
  E.  S E  Q    E  S S E     E.  S E  Q    E  S S E   
--0---0-x--0----0--0-0-0--|--2---2-x--2----2--2-2-2--|
--1---1-x--1----1--1-1-1--|--3---3-x--3----3--3-3-3--|
--0---0-x--0----0--0-0-0--|--2---2-x--2----2--2-2-2--|
--2---2-x--2----2--2-2-2--|--0---0-x--0----0--0-0-0--|
--3---3-x--3----3--3-3-3--|--------------------------|
--------------------------|--------------------------|


                             G                          C          D           
  E.  S E  Q    E  S S E     E.  S E  Q    E  S S E     Q    E  E  Q    E  E   
--2---2-x--2----2--2-2-2--|--3---3-x--3----3--3-3-3--|--0----0--0--2----2--2--|
--3---3-x--3----3--3-3-3--|--3---3-x--3----3--3-3-3--|--1----1--1--3----3--3--|
--2---2-x--2----2--2-2-2--|--0---0-x--0----0--0-0-0--|--0----0--0--2----2--2--|
--0---0-x--0----0--0-0-0--|--0---0-x--0----0--0-0-0--|--2----2--2--0----0--0--|
--------------------------|--2---2-x--2----2--2-2-2--|--3----3--3-------------|
--------------------------|--3---3-x--3----3--3-3-3--|------------------------|


  G                          C          D             Em                       
  E.  S E  Q    E  S S E     Q    E  E  Q    E  E     E.  S E  Q    E  S S E   
--3---3-x--3----3--3-3-3--|--0----0--0--2----2--2--|--0---0-x--0----0--0-0-0--|
--3---3-x--3----3--3-3-3--|--1----1--1--3----3--3--|--0---0-x--0----0--0-0-0--|
--0---0-x--0----0--0-0-0--|--0----0--0--2----2--2--|--0---0-x--0----0--0-0-0--|
--0---0-x--0----0--0-0-0--|--2----2--2--0----0--0--|--2---2-x--2----2--2-2-2--|
--2---2-x--2----2--2-2-2--|--3----3--3-------------|--2---2-x--2----2--2-2-2--|
--3---3-x--3----3--3-3-3--|------------------------|--0---0-x--0----0--0-0-0--|


  C          D             Em                         C          D           
  Q    E  E  Q    E  E     E.  S E  Q    E  S S E     Q    E  E  Q    E  E   
--0----0--0--2----2--2--|--0---0-x--0----0--0-0-0--|--0----0--0--2----2--2--|
--1----1--1--3----3--3--|--0---0-x--0----0--0-0-0--|--1----1--1--3----3--3--|
--0----0--0--2----2--2--|--0---0-x--0----0--0-0-0--|--0----0--0--2----2--2--|
--2----2--2--0----0--0--|--2---2-x--2----2--2-2-2--|--2----2--2--0----0--0--|
--3----3--3-------------|--2---2-x--2----2--2-2-2--|--3----3--3-------------|
------------------------|--0---0-x--0----0--0-0-0--|------------------------|


                              G                        
  E  E  E  S S Q    Q         E.  S E  Q    E  S S E   
--L--2--2--2-2-2----2----||---3---3-x--3----3--3-3-3--|
--L--3--3--3-3-3----3----||---3---3-x--3----3--3-3-3--|
--L--2--2--2-2-2----2----||*--0---0-x--0----0--0-0-0--|
--L--0--0--0-0-0----0----||*--0---0-x--0----0--0-0-0--|
-------------------------||---2---2-x--2----2--2-2-2--|
-------------------------||---3---3-x--3----3--3-3-3--|


  Em                         C          G/B         
  E.  S E  Q    E  S S E     Q    E  E  Q    E  E   
--0---0-x--0----0--0-0-0--|--0----0--0--3----3--3--|
--0---0-x--0----0--0-0-0--|--1----1--1--3----3--3--|
--0---0-x--0----0--0-0-0--|--0----0--0--0----0--0--|
--2---2-x--2----2--2-2-2--|--2----2--2--0----0--0--|
--2---2-x--2----2--2-2-2--|--3----3--3--2----2--2--|
--0---0-x--0----0--0-0-0--|------------------------|


  Am                           G                        
  E.  S E  Q    E  S S E   3x  E.  S E  Q    E  S S E   
--0---0-x--0----0--0-0-0---||--3---3-x--3----3--3-3-3--|
--1---1-x--1----1--1-1-1---||--3---3-x--3----3--3-3-3--|
--2---2-x--2----2--2-2-2--*||--0---0-x--0----0--0-0-0--|
--2---2-x--2----2--2-2-2--*||--0---0-x--0----0--0-0-0--|
--0---0-x--0----0--0-0-0---||--2---2-x--2----2--2-2-2--|
---------------------------||--3---3-x--3----3--3-3-3--|


  Em                         C                        
  E.  S E  Q    E  S S E     E.  S E  Q    E  S S E   
--0---0-x--0----0--0-0-0--|--0---0-x--0----0--0-0-0--|
--0---0-x--0----0--0-0-0--|--1---1-x--1----1--1-1-1--|
--0---0-x--0----0--0-0-0--|--0---0-x--0----0--0-0-0--|
--2---2-x--2----2--2-2-2--|--2---2-x--2----2--2-2-2--|
--2---2-x--2----2--2-2-2--|--3---3-x--3----3--3-3-3--|
--0---0-x--0----0--0-0-0--|--------------------------|


  D                                                   
  E.  S E  Q    E  S S E     E.  S E  Q    E  S S E   
--2---2-x--2----2--2-2-2--|--2---2-x--2----2--2-2-2--|
--3---3-x--3----3--3-3-3--|--3---3-x--3----3--3-3-3--|
--2---2-x--2----2--2-2-2--|--2---2-x--2----2--2-2-2--|
--0---0-x--0----0--0-0-0--|--0---0-x--0----0--0-0-0--|
--------------------------|--------------------------|
--------------------------|--------------------------|


  G                          C          D             G                        
  E.  S E  Q    E  S S E     Q    E  E  Q    E  E     E.  S E  Q    E  S S E   
--3---3-x--3----3--3-3-3--|--0----0--0--2----2--2--|--3---3-x--3----3--3-3-3--|
--3---3-x--3----3--3-3-3--|--1----1--1--3----3--3--|--3---3-x--3----3--3-3-3--|
--0---0-x--0----0--0-0-0--|--0----0--0--2----2--2--|--0---0-x--0----0--0-0-0--|
--0---0-x--0----0--0-0-0--|--2----2--2--0----0--0--|--0---0-x--0----0--0-0-0--|
--2---2-x--2----2--2-2-2--|--3----3--3-------------|--2---2-x--2----2--2-2-2--|
--3---3-x--3----3--3-3-3--|------------------------|--3---3-x--3----3--3-3-3--|


  C          D             Em                         C          D           
  Q    E  E  Q    E  E     E.  S E  Q    E  S S E     Q    E  E  Q    E  E   
--0----0--0--2----2--2--|--0---0-x--0----0--0-0-0--|--0----0--0--2----2--2--|
--1----1--1--3----3--3--|--0---0-x--0----0--0-0-0--|--1----1--1--3----3--3--|
--0----0--0--2----2--2--|--0---0-x--0----0--0-0-0--|--0----0--0--2----2--2--|
--2----2--2--0----0--0--|--2---2-x--2----2--2-2-2--|--2----2--2--0----0--0--|
--3----3--3-------------|--2---2-x--2----2--2-2-2--|--3----3--3-------------|
------------------------|--0---0-x--0----0--0-0-0--|------------------------|


  Em                         C          D           
  E.  S E  Q    E  S S E     Q    E  E  Q    E  E   
--0---0-x--0----0--0-0-0--|--0----0--0--2----2--2--|
--0---0-x--0----0--0-0-0--|--1----1--1--3----3--3--|
--0---0-x--0----0--0-0-0--|--0----0--0--2----2--2--|
--2---2-x--2----2--2-2-2--|--2----2--2--0----0--0--|
--2---2-x--2----2--2-2-2--|--3----3--3-------------|
--0---0-x--0----0--0-0-0--|------------------------|


    E  E  E  E  E  E  E  E     Q    E  E  E  E  E  E   3x
|---------------------------|-------0--0--2--2--2--2---||
|---------------------------|-------1--1--3--3--3--3---||
|*--------------------------|-------0--0--2--2--2--2--*||
|*-----2--x--x--2--x--x--2--|-------2--2--0--0--0--0--*||
|------2--x--x--2--x--x--2--|-------3--3---------------||
|------0--x--x--0--x--x--0--|--------------------------||


  G                          Em                         C          G/B         
  E.  S E  Q    E  S S E     E.  S E  Q    E  S S E     Q    E  E  Q    E  E   
--3---3-x--3----3--3-3-3--|--0---0-x--0----0--0-0-0--|--0----0--0--3----3--3--|
--3---3-x--3----3--3-3-3--|--0---0-x--0----0--0-0-0--|--1----1--1--3----3--3--|
--0---0-x--0----0--0-0-0--|--0---0-x--0----0--0-0-0--|--0----0--0--0----0--0--|
--0---0-x--0----0--0-0-0--|--2---2-x--2----2--2-2-2--|--2----2--2--0----0--0--|
--2---2-x--2----2--2-2-2--|--2---2-x--2----2--2-2-2--|--3----3--3--2----2--2--|
--3---3-x--3----3--3-3-3--|--0---0-x--0----0--0-0-0--|------------------------|


  Am                         G                        
  E.  S E  Q    E  S S E     E.  S E  Q    E  S S E   
--0---0-x--0----0--0-0-0--|--3---3-x--3----3--3-3-3--|
--1---1-x--1----1--1-1-1--|--3---3-x--3----3--3-3-3--|
--2---2-x--2----2--2-2-2--|--0---0-x--0----0--0-0-0--|
--2---2-x--2----2--2-2-2--|--0---0-x--0----0--0-0-0--|
--0---0-x--0----0--0-0-0--|--2---2-x--2----2--2-2-2--|
--------------------------|--3---3-x--3----3--3-3-3--|


  Em                         C          G/B           Am                       
  E.  S E  Q    E  S S E     Q    E  E  Q    E  E     E.  S E  Q    E  S S E   
--0---0-x--0----0--0-0-0--|--0----0--0--3----3--3--|--0---0-x--0----0--0-0-0--|
--0---0-x--0----0--0-0-0--|--1----1--1--3----3--3--|--1---1-x--1----1--1-1-1--|
--0---0-x--0----0--0-0-0--|--0----0--0--0----0--0--|--2---2-x--2----2--2-2-2--|
--2---2-x--2----2--2-2-2--|--2----2--2--0----0--0--|--2---2-x--2----2--2-2-2--|
--2---2-x--2----2--2-2-2--|--3----3--3--2----2--2--|--0---0-x--0----0--0-0-0--|
--0---0-x--0----0--0-0-0--|------------------------|--------------------------|


  Em                         C          D             Em                       
  E.  S E  Q    E  S S E     Q    E  E  Q    E  E     E.  S E  Q    E  S S E   
--7---7-x--7----7--7-7-7--|--3----3--3--5----5--5--|--7---7-x--7----7--7-7-7--|
--8---8-x--8----8--8-8-8--|--5----5--5--7----7--7--|--8---8-x--8----8--8-8-8--|
--9---9-x--9----9--9-9-9--|--5----5--5--7----7--7--|--9---9-x--9----9--9-9-9--|
--9---9-x--9----9--9-9-9--|--5----5--5--7----7--7--|--9---9-x--9----9--9-9-9--|
--7---7-x--7----7--7-7-7--|--3----3--3--5----5--5--|--7---7-x--7----7--7-7-7--|
--------------------------|------------------------|--0-----------------------|


  C          D             Em                         C          D           
  Q    E  E  Q    E  E     E.  S E  Q    E  S S E     Q    E  E  Q    E  E   
--3----3--3--5----5--5--|--7---7-x--7----7--7-7-7--|--3----3--3--5----5--5--|
--5----5--5--7----7--7--|--8---8-x--8----8--8-8-8--|--5----5--5--7----7--7--|
--5----5--5--7----7--7--|--9---9-x--9----9--9-9-9--|--5----5--5--7----7--7--|
--5----5--5--7----7--7--|--9---9-x--9----9--9-9-9--|--5----5--5--7----7--7--|
--3----3--3--5----5--5--|--7---7-x--7----7--7-7-7--|--3----3--3--5----5--5--|
------------------------|--0-----------------------|------------------------|


  Em                         C          D             Em                     
                                                      ^    v    ^            
  E.  S E  Q    E  S S E     Q    E  E  Q    E  E     E  S E  S E  H         
--7---7-x--7----7--7-7-7--|--3----3--3--5----5--5--|--7----7----7-----------|
--8---8-x--8----8--8-8-8--|--5----5--5--7----7--7--|--8----8----8-----------|
--9---9-x--9----9--9-9-9--|--5----5--5--7----7--7--|--9----9----9-----------|
--9---9-x--9----9--9-9-9--|--5----5--5--7----7--7--|--9----9----9-----------|
--7---7-x--7----7--7-7-7--|--3----3--3--5----5--5--|--7----7----7-----------|
--0-----------------------|------------------------|------------------------|


-----------|-----------||
-----------|-----------||
-----------|-----------||
-----------|-----------||
-----------|-----------||
-----------|-----------||




Duration Legend
---------------
W - whole
H - half
Q - quarter
E - 8th
S - 16th
T - 32nd
X - 64th
. - note dotted
|-n-|  - n-tuplets


Tablature Legend
----------------
L - tied note
x - dead note
g - grace note
(n) - ghost note
> - accentuded note
NH - natural harmonic
AH - artificial harmonic
TH - tapped harmonic
SH - semi harmonic
PH - pitch harmonic
h - hammer on
p - pull off
b - bend
br - bendRelease
pb - preBend
pbr - preBendRelease
brb - bendReleaseBend
\n/ - tremolo bar dip
\n - tremolo bar dive
-/n - tremolo bar Release up
/n\ - tremolo bar inverted dip
/n - tremolo bar return
-\n - tremolo bar Release down
S - shift slide
s - legato slide
/ -  slide into from below or out of upwards
\ -  slide into from above or out of downwards
~ - vibrato
W - wide vibrato
tr - trill
TP - tremolo picking
T - tapping
S - slap
P - pop
< - fade in
^ - brush up
v - brush down





Comments


Popular Bob Marley tabs & chords
Redempition Song Bass Tabs
Roots Rock Reggae Bass Tabs
Walk The Proud Land Bass Tabs
You Cant Blame The Youth Bass Tabs
Guava Jelly 1 Chords
No Woman No Cry The Rite Way Tabs
Buffalo Soldier Ukulele
Crazy Baldheads Ukulele
Cry To Me Ukulele
Soul Captives Ukulele


Song lyrics



↑ Back to top | Tablatures and chords are parodies/interpretations of the original songs. You may use it for private study, scholarship, research or language learning purposes only
© 2014 AZChords.com Contact us | Privacy policy | DMCA | Add/correct tabs | Request tabs | Top 50 tabs