» » »

Bob Marley, One Drop Bass tabs (ver.1)

Artists:  A B C D E F G H I J K L M N O P Q R S T U V W X Y Z # 

One Drop Bass tabs (ver.1)

Bob Marley Tabs
Rating:
0/5 (0 votes)
One Drop lessons Tabs too difficult? Try these video lessons and learn fast
                Bob Marley

Hole song:
                                                  
G-------------------------------------------------
D------------2--2--5--5--------------------2------
A---3--3--3--------------------------3--3---------
E------------------------5--5-----5---------------
                                                  
                                         
G---------------------2--7-----------4------------
D---------------3--3--------5-----5-----5---------
A------5--5--5-----------------------------5------
E-------------------------------------------------
            
Submit corrections

comments powered by Disqus
↑ Back to top | Bob Marley Bass for One Drop. Lyrics for acoustic guitar and electric guitar. Tablatures and chords are parodies/interpretations of the original songs. You may use it for private study, scholarship, research or language learning purposes only