» » »

No Woman No Cry Tabs (ver.5)

Artists:  A B C D E F G H I J K L M N O P Q R S T U V W X Y Z # 

No Woman No Cry Tabs (ver.5)

Bob Marley
Rating:
0/5 (0 votes)

Hard to play? Try these video lessons and learn fast.
                        G x4                                              D
 e--------------------------------------------------------------|
 B------0---------0---------0---------0---------0---------3-----|
 G----0---0-----0---0-----0---0-----0---0-----0---0-----2---2---|
 D----------------------------------------------------0---------|
 A--------------------------------------------------------------|
 E--3---------3---------3---------3---------3-------------------|

       EM         C         G       C     D       G         D
 e--------------------------------------------------------------|
 B------0---------1---------0-------1-----3-------0---------3---|
 G----0---0-----0---0-----0---0-----------------0---0-----2---2-|
 D--------------------------------------0---------------0-------|
 A------------3-------------------3-----------------------------|
 E--0-------------------3---------------------3-----------------|

        G         D        EM         C
 e-------------------------------------------|  This is the acoustic version
 B------0---------3---------0---------1------|  of "No woman no cry",what I
 G----0---0-----2---2-----0---0-----0---0----|  wrote was the intro and some
 D------------0------------------------------|  of the verse...to play this
 A--------------------------------3----------|  song you have to play with
 E--3-------------------0--------------------|  your fingers but you can also
     "I remember when we used to sit..."      play these chords normally.
            
Hard to play? Try these video lessons and learn fast. | Correct




comments powered by Disqus
↑ Back to top | Tablatures and chords are parodies/interpretations of the original songs. You may use it for private study, scholarship, research or language learning purposes only