» » »

No Woman No Cry Bass tabs (ver.3)

Artists:  A B C D E F G H I J K L M N O P Q R S T U V W X Y Z # 

No Woman No Cry Bass tabs (ver.3)

Bob Marley
Rating:
0/5 (0 votes)

Tabs too difficult? Try these video lessons and learn fast.
                

Sign up to the mailing list on my site to receive my 50 Essential Function Band Bass
Tabs for the Working Bass Player!

INTRO
x1
G|-----------------------------------------|
D|--------------------3--2-----------------|
A|3---2----------3---------5--3--------3---|
E|--------5---1-------------------3--5---3-|

x4
G|--------------------------------------------------|
D|--------------------------------------------------|
A|3---2---------------3--------3----------------3---|
E|--------5---1--1-3-------1---------------3--5---3-|


CHORUS
x2
G|--------------------------------------------------|
D|--------------------------------------------------|
A|--------------------3--------3----------------3---|
E|------------1--1-3-------1---------------3--5---3-|


VERSE 
x8
G|-----------------|
D|-----------------|
A|3--33-2----------|
E|---------3--5---1|


CHORUS TWO
x2
G|--------------------------------------------------|
D|--------------------------------------------------|
A|3---2---------------3--------3----------------3---|
E|--------5---1--1-3-------1---------------3--5---3-|


VERSE 
x8
G|-----------------|
D|-----------------|
A|3--33-2----------|
E|---------3--5---1|


CHORUS THREE
x4
G|----------------------------|
D|----------------------3-2---|
A|3--33-2-------------------5-|
E|-----------55---1-1--1------|


CHORUS THREE
x2
G|--------------------------------------------------|
D|--------------------------------------------------|
A|3---2---------------3--------3----------------3---|
E|--------5---1--1-3-------1---------------3--5---3-|


SOLO
x4
G|---------------------------------------------------------|
D|--5-------5----------------------------------------------|
A|3-----3-2------2-------------3--------3--------------3---|
E|-----------------5---1---1-3-------1------------3--5---3-|


VERSE 
x8
G|-----------------|
D|-----------------|
A|3--33-2----------|
E|---------3--5---1|


LAST CHORUS
x2
G|--------------------------------------------------|
D|--------------------------------------------------|
A|3---2---------------3--------3----------------3---|
E|--------5---1--1-3-------1---------------3--5---3-|

x1
G|---------------------------------------------------------|
D|--5-------5----------------------------------------------|
A|3-----3-2------2-------------3--------3--------------3---|
E|-----------------5---1---1-3-------1------------3--5---3-|

x1
G|-----------------------------------------------------------|
D|--5-5-5-----5----------------------------------------------|
A|3--3-3--3-2------2-------------3--------3--------------3---|
E|-------------------5---1---1-3-------1------------3--5---3-|

x1
G|--------------------------------------------------|
D|--------------------------------------------------|
A|3---2---------------3--------3----------------3---|
E|--------5---1--1-3-------1---------------3--5---3-|

G|---------------------------------------|
D|--5----5---------------3--2------------|
A|3---3-2--2--------3---------5--3-------|
E|-----------5---1-----------------------|

| /  slide up
| \  slide down
| h  hammer-on 
| p  pull-off 
| ~  vibrato 
| +  harmonic 
| x  Mute note
| S  Slap
| P  Pop
            
Tabs too difficult? Try these video lessons and learn fast.


comments powered by Disqus
↑ Back to top | Tablatures and chords are parodies/interpretations of the original songs. You may use it for private study, scholarship, research or language learning purposes only