» » »

Misty Morning Bass tabs (ver.1)

Artists:  A B C D E F G H I J K L M N O P Q R S T U V W X Y Z # 

Misty Morning Bass tabs (ver.1)

Bob Marley
Rating:
0/5 (0 votes)

Hard to play? Try these video lessons and learn fast.
                Great Song

Bob Marley – Misty Morning

Intro:

G|------------------------------------------------------| 
D|------------------------------------------------------| X2
A|----------------------------------7---------7---------|   
E|--3-3-3-3-3---5-5-5-5-5---7-7-7-7-----7-7-7---7-------|

Main Riff Pattern:

G|------------------------------------------------------| 
D|-------------------------------5--7-------------------| 
A|-2-3-2----------------------7-------------------------|    
E|--------3-3-3----5-5-5-5---------------7----3-3-3-3---|

Bridge: “I Want You To Straighten…”

G|------------------------------------------------------| 
D|------------------------------------------------------| 
A|----------------------------------7---------7---------| X3
E|--3-3-3-3-3---5-5-5-5-5---7-7-7-7-----7-7-7---7-------|
            
Hard to play? Try these video lessons and learn fast. | Correct




comments powered by Disqus
↑ Back to top | Tablatures and chords are parodies/interpretations of the original songs. You may use it for private study, scholarship, research or language learning purposes only