» » »

Kinky Reggae Bass tabs (ver.4)

Artists:  A B C D E F G H I J K L M N O P Q R S T U V W X Y Z # 

Kinky Reggae Bass tabs (ver.4)

Bob Marley
Rating:
0/5 (0 votes)

Tabs too difficult? Try these video lessons and learn fast.
                Pongan atención al ritmo
|------------------------------------------------|
|------------------------------------------------|
|-0-3-3-0-3-3-5-0-0------------------------------|
|------------------------------------------------|

|------------------------------------------------|
|-5----------------------------------------------|
|--3-3-0-3-3-5-0-0-------------------------------|
|------------------------------------------------|

 'I think I'll might join the fun'
|------------------------------------------------|
|------------------------------------------------|
|-0-3-3-0-3-3-5-0-0------------------------------|
|------------------------------------------------|

 'Ride on;'
|------------------------------------------------|
|---------------------5--------------------------|
|-------------0-3h5-0h-0-------------------------|
|-3-3-0-33---------------5-0-3-5-5-0-------------|

 'Kinky reggae, take me away!'
|------------------------------------------------|
|------------------------------------------------|
|---------------------5--------------------------|
|-3-3-0-3--00-5-3-3/----5-3--3-4-5-5-0-(0)-------| 1 y (1)

 'An' I would say: ride on...'
|------------------------------------------------|
|---------------------5--------------------------|
|-------------0-3h5-0h-0-------------------------|
|-3-3-0-33---------------5-0-3-5-5-0-------------|

 'I went down to Piccadilly Circus...'
|------------------------------------------------|
|------------------------------------------------|
|-5----------------------------------------------|
|---3/-0-3-3-5-3-0-0-----------------------------|

|------------------------------------------------|
|-5----------------------------------------------|
|--3-3-0-3-3-5-0-0-------------------------------|
|------------------------------------------------|
desp repite todos los ritmos
            
Tabs too difficult? Try these video lessons and learn fast.




comments powered by Disqus
↑ Back to top | Tablatures and chords are parodies/interpretations of the original songs. You may use it for private study, scholarship, research or language learning purposes only