» » »

Jah Bass tabs (ver.1)

Artists:  A B C D E F G H I J K L M N O P Q R S T U V W X Y Z # 

Jah Bass tabs (ver.1)

Bob Marley
Rating:
0/5 (0 votes)

Hard to play? Try these video lessons and learn fast.
                (Live)
Title;Jah Live
Artist;Bob Marley & the Wailers

intro
G-------------------------------------------------|
D-------------------------------------------------|
A--3-3---2-2------3--------3-3----2-2-------------|
E--------------1----1--------------------5---3-5--|

chorus
G----------------------------------------------------|
D----------------------------------------------------|
A--3-33333-2-2----------------3-33333-2-2------------|
E----------------5---3-5--------------------5---3-5--|

verse
G---------------------------------------------------------------|
D------------------------------------------------------------3--|
A--3-33333-----2-2-----3-----------3-33333-----2-2-----3--------|
E------------------1-----1-------------------------1-----1------|
            
Hard to play? Try these video lessons and learn fast. | Correct




comments powered by Disqus
↑ Back to top | Tablatures and chords are parodies/interpretations of the original songs. You may use it for private study, scholarship, research or language learning purposes only