>
 >
Is This Love 2

Is This Love 2 Bass Tabs

Bob Marley - Is This Love 2 chords, tabs, tablatures, lyrics

Guitar lessons | Add/correct | Request | Top 50 tabs Artists:  A B C D E F G H I J K L M N O P Q R S T U V W X Y Z 0-9

Is This Love 2 Bass Tabs – Bob Marley

CD, Sheet music, Poster

Do you like Is This Love 2? Share with your friends now
Bass TabsBass Tabs v2Ukulele



Notation legend:

  3  -> triplet, 3 notes in 2 beats.
 / | \

   /   -> slide down.
   r   -> rest.
   + + -> the rhythm of the song, generally 4x4. If there are 2 digits notes
          or there's no enough space, I lengthen it, 
          from (+   +   ...) to (+      +     ...) 
   |------| -> repeat this a number of times, for example |3-3-3-3| x4
                 repeats 3-3-3-3 four times.


Intro:

  F#m              F#m              D                A
  +   +   +   +    +   +   +   +    +   +   +   +    +   +   +   +    
G|--------------2-|----------------|--------------6-|------7-6---7-6-|
D|--------2-4-----|----4---2-4-----|--------4-7-----|----7-----7-----|
A|------4---------|------4---------|------5---------|----------------|
E|----------------|----------------|----------------|----------------|

  F#m              F#m              D                A
  +   +   +   +    +   +   +   +    +   +   +   +    +  +  +  + 
G|--------------2-|----------------|----------------|------------|
D|7-------2-4-----|----4---2-4-----|--------4-7-----|-3---3--|
A|------4---------|------4---------|------5---------|/-|-\-/-|-\-|
E|----------------|----------------|----------------|5-5-5-4-4-4-|

Verse 1:

  F#m              D                A
  +   +   +   +    +   +   +   +    +  +  +  +   
G|----------------|----------------|------------|
D|----------------|--------4-------|-3---3--|
A|----------------|5---------------|/-|-\-/-|-\-|
E|2---------------|------------5---|r-5-5-4-4-4-|

   C#m              F#m              D                A
   +   +   +   +    +   +   +   +    +   +   +   +    +  +  +  +
G||--------------2-|----------------|----------------|------------||
D|--------2-4-----|----4---2-4-----|--------4-------|-3---3--|
A|------4---------|------4---------|5-5-5-5---------|/-|-\-/-|-\-|
E||2---------------|----------------|------------5---|r-5-5-4-4-4-|| x4
                                                      \__________/
                                               _ _ _ _4th time this:
                                              /
                                              |       +  +  +  +
                                               - -> G|-------3--|
                                                    D|------/-|-\-|
                                                    A|------0-2-3-|
                                                    E|------------|
Chorus 1:

  C#m                               Bm
  +   +   +   +    +   +   +   +    +   +   +   +    +   +   +   +
G|----------------|----------------|----------------|----------------|
D|--------6-------|----------------|--------4-------|----------------|
A|4--44----------4|---44---4-4----0|2--22--2--------|---02--22--2---2|
E|----------------|4---------------|----------------|2---------------|

  C#m                               Bm
  +   +   +   +    +   +   +   +    +   +   +   +    +   +   +   +
G|----------------|----------------|----------------|----------------|
D|--------6-------|----------------|--------4-------|----------------|
A|4--44----------4|---44--44-4----0|2--22--2--------|---02--22--2----|
E|----------------|4---------------|----------------|2---------------|

  Bm    C#m   D    E                D
  +   +   +   +    +   +   +   +    +   +   +   +    +   +   +   +
G|----------------|-------/2-------|--------6-6-----|--------6-6-----|
D|----------------|2-----------4---|----4-7---------|----4-7---------|
A|2-----4-----5---|----------------|5-5-------------|5-5-------------|
E|----------------|----------------|----------------|----------------|

  Bm    C#m   D    E                D
  +   +   +   +    +   +   +   +    +   +   +   +    +   +   +   +
G|----------------|--------7---6---|------7-6-----7-|6-7-6-----------|
D|----------------|2---------------|----------------|----------------|
A|2-----4-----5---|----------------|----------------|----------------|
E|----------------|----------------|----------------|----------------|

  C#m                               Bm
  +   +   +   +    +   +   +   +    +   +   +   +    +   +   +   +
G|----------------|----------------|----------------|----------------|
D|--------6-6-----|----------------|--------4-4-----|----------------|
A|4-4-4-----------|--2-4-4-4-4-----|2-2-2-----------|----2-2-2-2-----|
E|----------------|4--------------2|----------------|2-2-------------|

  C#m                               E       D        C#      B
  +   +   +   +    +   +   +   +    +   +   +   +    +   +   +   +
G|----------------|----------------|----------------|----------------|
D|----------------|----4-4-4-4-----|2---------------|----------------|
A|--------4-4-----|4-4-------------|--------5-------|4-------2-------|
E|2-2-2-2---------|----------------|----------------|----------------|

Verse 2:

  F#m              D                A
  +   +   +   +    +   +   +   +    +  +  +  +
G|----------------|----------------|------------|
D|----------------|--------47------|-3---3--|
A|----------------|5------5--------|/-|-\-/-|-\-|
E|--2-2-2-5-5-2---|----------5-----|r-5-5-4-4-4-|

   F#m              F#m              D                A
   +   +   +   +    +   +   +   +    +   +   +   +    +  +  +  +
G||--------------2-|----------------|----------------|------------||
D|--------2-4-----|----4---2-4-----|--------4-------|-3---3--|
A|------4---------|------4---------|5-5-5-5---------|/-|-\-/-|-\-|
E||2---------------|----------------|------------5---|r-5-5-4-4-4-|| x4
                                                      \__________/
                                               _ _ _ _4th time this:
                                              /
                                              |       +  +  +  +
                                               - -> G|-------3--|
                                                    D|------/-|-\-|
                                                    A|------0-2-3-|
                                                    E|------------|

Chorus 2:

  C#m                               Bm
  +   +   +   +    +   +   +   +    +   +   +   +    +   +   +   +
G|----------------|----------------|----------------|----------------|
D|--------6-------|----------------|--------4-------|----------------|
A|4--44-----------|---44--44--4--0-|2--22--2--------|---02--22--2--2-|
E|----------------|4---------------|----------------|2---------------|

  +   +   +   +    +   +   +   +    +   +   +   +    +   +   +   +
G|----------------|----------------|----------------|----------------|
D|--------6-------|----------------|--------4-------|----------------|
A|4--44--4--------|---44--44--4--4-|2--22--2--------|--0-2-2-2-2-----|
E|----------------|4---------------|----------------|2---------------|

  Bm    C#m   D    E                D
  +   +   +   +    +   +   +   +    +   +   +   +    +   +   +   +
G|----------------|--------2-------|--------6-6-----|--------6-6-----|
D|----------------|2-----------4---|----4-7---------|----4-7---------|
A|2-----4-----5---|----------------|5-5-------------|5-5-------------|
E|----------------|----------------|----------------|----------------|

  Bm    C#m   D    E                D
  +   +   +   +    +   +   +   +    +   +   +   +    +   +   +   +
G|----------------|--------7---6---|------7-6-----7-|6-7-6-----------|
D|----------------|2---------------|----------------|----------------|
A|2-----4-----5---|----------------|----------------|----------------|
E|----------------|----------------|----------------|----------------|

  C#m                               Bm
  +   +   +   +    +   +   +   +    +   +   +   +    +   +   +   +
G|----------------|----------------|----------------|----------------|
D|--------6-6-----|----------------|--------4-4-----|----------------|
A|4-4-4-----------|--2-4-4-4-4-----|2-2-2-----------|--0-2-2-2-2-----|
E|----------------|4--------------2|----------------|2---------------|

  C#m                               E       D        C#      B
  +   +   +   +    +   +   +   +    +   +   +   +    +   +   +   +
G|----------------|----------------|----------------|----------------|
D|----------------|----4-4-4-4-----|2---------------|----------------|
A|--------4-4-----|4-4-------------|--------5-------|4-------2-------|
E|2-2-2-2---------|----------------|----------------|----------------|

Verse 3:

  F#m              D                A
  +   +   +   +    +   +   +   +    +  +  +  +
G|----------------|----------------|------------|
D|----------------|--------7-------|-3---3--|
A|----------------|5------5--------|/-|-\-/-|-\-|
E|--2-5-2-5-5-2---|----------5-----|r-5-5-4-4-4-|

   F#m              F#m              D                A
   +   +   +   +    +   +   +   +    +   +   +   +    +  +  +  +
G||--------------2-|----------------|----------------|------------||
D|--------2-4-----|----4---2-4-----|--------4-------|-3---3--|
A|------4---------|------4---------|5-5-5-5---------|/-|-\-/-|-\-|
E||2---------------|----------------|------------5---|r-5-5-4-4-4-|| x5, till fade



     __   _      __      __      _____   _____   _____
    /  | / |    /  |    /  `\   / ___/  / __ /  (  __/
   /   |/  |   / /||   / /) /  //      / / //   \ \
  / /|   /||  / /^||  / /||   //___   / / //  ___) )
 / / |  / || / /  || / / ||  /    /  /  ^^/  /    / 
 ^^^^^^^^^^^^^^^^^^^^^^^^^^^^^^^^^^^^^^^^^^^^^^^^^





Comments


Popular Bob Marley tabs & chords
Ambush In The Night 2 Bass Tabs
I Shot The Sheriff 3 Bass Tabs
Hallelujah Time Chords
Redemption Song 2 Chords
Gueva Jelly Tabs
I Shot The Sheriff 4 Tabs
Iron, Lion, Zion Tabs
Jammin' Tabs
Sun Is Shining Ukulele
Trenchtown Rock Ukulele


Song lyrics



↑ Back to top | Tablatures and chords are parodies/interpretations of the original songs. You may use it for private study, scholarship, research or language learning purposes only
© 2014 AZChords.com Contact us | Privacy policy | DMCA | Add/correct tabs | Request tabs | Top 50 tabs