» » »

Forever Loving Jah Bass tabs (ver.1)

Artists:  A B C D E F G H I J K L M N O P Q R S T U V W X Y Z # 

Forever Loving Jah Bass tabs (ver.1)

Bob Marley
Rating:
5/5 (2 votes)

Hard to play? Try these video lessons and learn fast.
                    Title - Forever Loving Jah
    Artist - Bob Marley & the Wailers
    Album - Uprising

       intro;
  G|------666-----666----------------------|
  D|--44-------44------------444------666--|
  A|---------------------22-------44-------|
  E|---------------------------------------|

  G|------666-----666----------------------|
  D|--44-------44------------444------666--|
  A|---------------------22-------44-------|
  E|---------------------------------------|


       verse/chorus; (repeat thro'out)
  G|-------2---------------------------------|
  D|----44---4------444--4----444-4-----666--|
  A|--2--------4--4--------22--------44------|
  E|-----------------------------------------|

  G|-------2---------------------------------|
  D|----44---4------444--4-----444-4----666--|
  A|--2--------4--4--------22--------44------|
  E|-----------------------------------------|
            
Hard to play? Try these video lessons and learn fast. | Correct




comments powered by Disqus
↑ Back to top | Tablatures and chords are parodies/interpretations of the original songs. You may use it for private study, scholarship, research or language learning purposes only