» » »

Easy Skanking Bass tabs (ver.1)

Artists:  A B C D E F G H I J K L M N O P Q R S T U V W X Y Z # 

Easy Skanking Bass tabs (ver.1)

Bob Marley
Rating:
2/5 (2 votes)

Hard to play? Try these video lessons and learn fast.
                Title;Easy Skanking
Artist;Bob Marley & the Wailers
Album;Kaya

 chorus X2(first time inc.intro)
G|-------------------------------------------------------------|
D|-------------------------------------------------------------|
A|----558----5588------5------55----558----5588------5------55-|
E|-666----666-----33366--33366---666----666-----33366--33366---|

 verse
G|---------------------------------------------------------------|
D|--------------------558----5588--------------------558----55---|
A|----558----5588--666----666--------558----5588--666----666--66-|
E|-666----666---------------------666----666---------------------|

 repeat chorus and then...

 break
G|------------------------------------------------------------------|
D|-----88--------------88--------------88--------------88-----------|
A|-6666--665555--556666--665555--556666--665555--556666--665555--55-|
E|-------------55--------------55--------------55--------------55---|

 repeat chorus,verse,chorus,break and chorus to fade
            
Hard to play? Try these video lessons and learn fast. | Correct




comments powered by Disqus
↑ Back to top | Tablatures and chords are parodies/interpretations of the original songs. You may use it for private study, scholarship, research or language learning purposes only