» » »

Could You Be Loved Bass tabs (ver.5)

Artists:  A B C D E F G H I J K L M N O P Q R S T U V W X Y Z # 

Could You Be Loved Bass tabs (ver.5)

Bob Marley
Rating:
0/5 (0 votes)

Hard to play? Try these video lessons and learn fast.
                Could you be loved bass tab

intro
G:-----------------------------|
D:-----------4-----------------|
A:--(0)-2--5-----54------------|
E:-----------------------------|

G:-----------------------------|
D:-----------4-----------------|
A:--(0)-2--5----5(4)-----------|
E:-----------------------------|


chorus x2
G:-------------------------------------------------|
D:-------------------------------------------------|
A:-555--555-----222--222-------------555--202-5--0-|
E:--------------------------333--333---------------|

Riff2 x2
G:---------------------------------------------|
D:------2-4---------2-4-----222-222---222--222-|
A:--2-5-----2---2-5-----2----------------------|
E:---------------------------------------------|

Riff3 x1
G:------------------------------77------66---------------|
D:------2-4---------2-4-----555------444-------2-----222-|
A:--2-5-----2---2-5-----2-------------------------22-----|
E:-------------------------------------------------------|

G:------------------77------66----22---------------|
D:------2-4-----55------44-----------22------------|
A:--2-5-----2----------------------------00--------|
E:-------------------------------------------------|


Riff4 x3
G:----------------------------------|
D:--------------4--------------4----|
A:--0-2-x0-2-2-2----0-2-0-2--2---2--|
E:----------------------------------|

G:----------------------------4----|
D:--------------4------------------|
A:--0-2-x0-2-2-2----0-2-0-2--------|
E:---------------------------------|

Outro
|--------------------|
|--------------4-----|
|--0-2-x0-2-2-2------|
|--------------------|
    Three times then
|----------4--|
|-------------|
|-0-2-0-2-----|
|-------------|
            
Hard to play? Try these video lessons and learn fast. | Correct




comments powered by Disqus
↑ Back to top | Tablatures and chords are parodies/interpretations of the original songs. You may use it for private study, scholarship, research or language learning purposes only