» » »

Could You Be Loved Bass tabs (ver.6)

Artists:  A B C D E F G H I J K L M N O P Q R S T U V W X Y Z # 

Could You Be Loved Bass tabs (ver.6)

Bob Marley
Rating:
0/5 (0 votes)

Hard to play? Try these video lessons and learn fast.
                Title;could you be loved
Artist;bob marley & the wailers
Bassist;family man
Album;uprising

this is a slightly simplified version of how to play this song
it sounds great if your timing is good, please comment

intro
G----------------------------|
D-------4------------4-------|
A-----5----5-4-----5---5--4--|
E--57-----------57-----------|

chorus 1 X2
G----------------------------------------------|
D---------------------055--055-----------------|
A--55--055----------------------55------5------|
E-----------577--577-----------5----7-57----5--|

verse 1
G------------------------------------------------|
D-------4------------4---------------------------|
A---5-7----------5-7---------77---77---77----77--|
E--7------(7)---7------(7)-------7----7-----7----|

G-----------------------------------------------|
D-------4------------4--------------------------|
A---5-7----------5-7---------77---77---77---77--|
E--7------(7)---7------(7)-------7----7----7----|

G----------------------------------------------------------|
D-------4------------4-------------1212-----1111-----------|
A---5-7----------5-7----------1010------999------77----77--|
E--7------(7)---7------(7)--------------------------77-----|

G--------(4)---------------------------------------------------|
D-------4------------4--------------121212----111111-77----77--|
A---5-7----------5-7---------101010--------999----------77-----|
E--7------------7------(7)-------------------------------------|

chorus 2 X2
G------------------------------------------------|
D------------------------------------------------|
A--55--055-----------------------55-------5-5----|
E-----------577--577--033--033--5----7-57-----5--|

break (over i threes vocal) X3
G-------------------------------------------------------------|
D----------------------------------------------------------9--|
A-------------9-----------9------------------9-----------9----|
E--5--7-5-7-7----5--7-5-7---7-----5--7-5-7-7----5--7-5-7------|

verse 2
G----------------------------------------------|
D-------4------------4-------------------------|
A-----5----5-4-----5----5-4--77--77---77---77--|
E--57-----------57--------------7----7----7----|

G----------------------------------------------|
D-------4------------4-------------------------|
A-----5----5-4-----5----5-4--77--77---77---77--|
E--57-----------57--------------7----7----7----|

G---------------------------------------------------------------|
D-------4------------4--------------121212-----111111-----------|
A-----5----5-4-----5----5-4--101010--------999--------77----77--|
E--57-----------57---------------------------------------77-----|

G------------------------------------------------------|
D-------4------------4--------------121212-----111111--|
A-----5----5-4-----5----5-4--101010--------999---------|
E--57-----------57-------------------------------------|

G-----999-------------999---------|
D-777-----777-----777-----777-----|
A-------------77--------------77--|
E---------------------------------|

chorus 3 X2
G------------------------------------------------|
D------------------------------------------------|
A--55--055-----------------------55-------5-5----|
E-----------577--577--033--033--5----7-57-----5--|

(same as break riff)
G-------------------------------------------------------------|
D----------------------------------------------------------9--|
A-------------9-----------9------------------9-----------9----|
E--5--7-5-7-7----5--7-5-7---7-----5--7-5-7-7----5--7-5-7------|
repeat to fade
            
Hard to play? Try these video lessons and learn fast. | Correct




comments powered by Disqus
↑ Back to top | Tablatures and chords are parodies/interpretations of the original songs. You may use it for private study, scholarship, research or language learning purposes only