» » »

Bob Marley, Buffalo Soldier Bass tabs (ver.4)

Artists:  A B C D E F G H I J K L M N O P Q R S T U V W X Y Z # 

Buffalo Soldier Bass tabs (ver.4)

Bob Marley Tabs
 Rating:
4/5 (4 votes)
Buffalo Soldier lessons Tabs too difficult? Try these video lessons and learn fast
1
                

Country: Philippines
Region: NCR
City: Mandaluyong 

INTRO: 

G||----------------------------|----------------------------|
D||----------------------------|----------------------------|
A||----------------------------|----------------------------|
E||--5--5--5--5--5--5--5--5----|--5--5--5--5--5--5--5--5----|


G||----------------------------|----------------------------|
D||----------------------------|----------------------------|
A||----------------------------|----------------------------|
E||--5--5--5--5--5--5--5--5----|--5--5--5--5--5--5--5--5----|


VERSE: (4X)

G||----------------------------|----------------------------|
D||----------------------------|----------------------------|
A||----------------------------|----------------------------|
E||--5--5--5-----5--5----------|--5--5--5-----5--5----------|


G||----------------------------|----------------------------|
D||--4--4----------------------|--------4--7----------------|
A||--------7-----5-------------|----------------------------|
E||--------------------5-------|--------------5--5----------|


PRE-CHORUS: (4X)

G||----------------------------|----------------------------|
D||----------------------------|----------------------------|
A||--5--5--5--0--4--4----------|--5--5--5--0--4--4----------|
E||--------------------4-------|--------------------4-------|


G||----------------------------|----------------------------|
D||----------------------------|----------------------------|
A||--4--4--4-----2--2--2-------|----------------------------|
E||-----------4----------------|--2--2----------------------|


VERSE: (4X)

G||----------------------------|----------------------------|
D||----------------------------|----------------------------|
A||----------------------------|----------------------------|
E||--5--5--5-----5--5----------|--5--5--5-----5--5----------|


G||----------------------------|----------------------------|
D||--4--4----------------------|--------4--7----------------|
A||--------7-----5-------------|----------------------------|
E||--------------------5-------|--------------5--5----------|


PRE-CHORUS: (4X)

G||----------------------------|----------------------------|
D||----------------------------|----------------------------|
A||--5--5--5--0--4--4----------|--5--5--5--0--4--4----------|
E||--------------------4-------|--------------------4-------|


G||----------------------------|----------------------------|
D||----------------------------|----------------------------|
A||--4--4--4-----2--2--2-------|----------------------------|
E||-----------4----------------|--2--2----------------------|


VERSE: (4X)

G||----------------------------|----------------------------|
D||----------------------------|----------------------------|
A||----------------------------|----------------------------|
E||--5--5--5-----5--5----------|--5--5--5-----5--5----------|


G||----------------------------|----------------------------|
D||--4--4----------------------|--------4--7----------------|
A||--------7-----5-------------|----------------------------|
E||--------------------5-------|--------------5--5----------|


PRE-CHORUS II (2X)

G||----------------------------|----------------------------|
D||----------------------------|----------------------------|
A||----------------------------|----------------------------|
E||--5--5--5-----5--5----------|--5--5--5-----5--5----------|


G||----------------------------|----------------------------|
D||--4--4----------------------|----------------------------|
A||--------7-----5-------------|--------5--7----------------|
E||--------------------5-------|--------------5--5----------|


BRIDGE:

G||----------------------------|----------------------------|
D||----------------------------|----------------------------|
A||----------------------------|----------------------------|
E||--2--2--2-----2--2----------|--2--2--2-----2--2----------|


G||----------------------------|----------------------------|
D||----------------------------|----------------------------|
A||--5--5--5-----5--0--5--7----|--4-----4-------------------|
E||----------------------------|----------------------------|


G||----------------------------|----------------------------|
D||----------------------------|----------------------------|
A||----------------------------|----------------------------|
E||--2--2--2-----2--2----------|--2--2--2-----2--2----------|

G------------------------------|----------------------------|
D||----------------------------|----------------------------|
A||--5--5-----5-----0--5--7----|--4-----7-------------------|
E||----------------------------|----------------------------|


VERSE: (4X)

G||----------------------------|----------------------------|
D||----------------------------|----------------------------|
A||----------------------------|----------------------------|
E||--5--5--5-----5--5----------|--5--5--5-----5--5----------|


G||----------------------------|----------------------------|
D||--4--4----------------------|--------4--7----------------|
A||--------7-----5-------------|----------------------------|
E||--------------------5-------|--------------5--5----------|


PRE-CHORUS II (2X)

G||----------------------------|----------------------------|
D||----------------------------|----------------------------|
A||----------------------------|----------------------------|
E||--5--5--5-----5--5----------|--5--5--5-----5--5----------|


G||----------------------------|----------------------------|
D||--4--4----------------------|----------------------------|
A||--------7-----5-------------|--------5--7----------------|
E||--------------------5-------|--------------5--5----------|


VERSE: (4X)

G||----------------------------|----------------------------|
D||----------------------------|----------------------------|
A||----------------------------|----------------------------|
E||--5--5--5-----5--5----------|--5--5--5-----5--5----------|


G||----------------------------|----------------------------|
D||--4--4----------------------|--------4--7----------------|
A||--------7-----5-------------|----------------------------|
E||--------------------5-------|--------------5--5----------|


PRE-CHORUS II (Repeat & Fade)

G||----------------------------|----------------------------|
D||----------------------------|----------------------------|
A||----------------------------|----------------------------|
E||--5--5--5-----5--5----------|--5--5--5-----5--5----------|


G||----------------------------|----------------------------|
D||--4--4----------------------|----------------------------|
A||--------7-----5-------------|--------5--7----------------|
E||--------------------5-------|--------------5--5----------|


M.O.T. Studio
            
Submit corrections

comments powered by Disqus
↑ Back to top | Bob Marley Bass for Buffalo Soldier. Lyrics for acoustic guitar and electric guitar. 1 Tablatures and chords are parodies/interpretations of the original songs. You may use it for private study, scholarship, research or language learning purposes only