>
 >
Bad Boys 2

Bad Boys 2 Bass Tabs

Bob Marley - Bad Boys 2 chords, tabs, tablatures, lyrics

Guitar lessons | Add/correct | Request | Top 50 tabs Artists:  A B C D E F G H I J K L M N O P Q R S T U V W X Y Z 0-9

Bad Boys 2 Bass Tabs – Bob Marley

CD, Sheet music, Poster

Do you like Bad Boys 2? Share with your friends now
Bass TabsBass Tabs v2

Additional annotation: Most of the quarter notes are played staccato,while 8ths are 
played normally


Intro:
                                                     Q    Q    Q    Q
G||-------|-------|-------|-------|-------|-------|----------------------|
D||-------|-------|-------|-------|-------|-------|----------------------|
A||-------|-------|-------|-------|-------|-------|------------6---------|
E||-------|-------|-------|-------|-------|-------|--4----2--------------|


  Q    Q    Q    E  E     E  E  E  E  E  E  E  E     E  E  Q    Q    E  E
-----------------------|--------------------------|------------------------|
------------6----------|--------------------------|------------------------|
-------6---------------|--------------------------|------------------------|
--4-----------------4--|--7--7--7--7--7--7--7--7--|--4--2--0----4-------4--|


  Q    Q    Q    Q       Q    Q    Q    E  E     E  E  E  E  E  E  E  E
----------------------|-----------------------|--------------------------|
----------------------|------------6----------|--------------------------|
------------6---------|-------6---------------|--------------------------|
--4----2--------------|--4-----------------4--|--7--7--7--7--7--7--7--7--|


  E  E  Q    Q    Q       Q    Q    Q    Q       W
-----------------------|----------------------|-------------------|
-----------------------|----------------------|-------------------|
-----------------------|------------6---------|-------------------|
--4--2--0----4---------|--4----2--------------|-------------------|


  E  E  E  E  E  E  E  E     E  H        Q    E     Q    Q    Q    Q
--------------------------|----------------------|----------------------|
--------------------------|----------------------|----------------------|
--------------------------|----------------------|------------6---------|
--7--7--7--7--7--7--7--7--|--2-------------------|--4----2--------------|


  W                   E  E  E  E  E  E  E  E     E  E  Q    Q    Q
-------------------|--------------------------|-----------------------|
-------------------|--------------------------|-----------------------|
-------------------|--------------------------|-----------------------|
-------------------|--7--7--7--7--7--7--7--7--|--4--2--0----4---------|

Verse:
  Q    Q    Q    Q       E  E  E  E  E  Q    E     E  E  E  E  E  E  E  E
----------------------|-------------------------|--------------------------|
----------------------|--6--4-----4--6----------|--------------------------|
------------6---------|--------6----------------|--------------------------|
--4----2--------------|----------------------4--|--7--7--7--7--7--7--7--7--|


  E  E  Q    Q    E  E     Q    Q    Q    Q       E  E  E  E  E  Q    E
------------------------|----------------------|-------------------------|
------------------------|----------------------|--6--4-----4--6----------|
------------------------|------------6---------|--------6----------------|
--4--2--0----4-------4--|--4----2--------------|----------------------4--|

						Chorus:
  E  E  E  E  E  E  E  E     W                   Q    Q    Q    Q
--------------------------|-------------------|----------------------|
--------------------------|-------------------|----------------------|
--------------------------|-------------------|------------6---------|
--7--7--7--7--7--7--7--7--|-------------------|--4----2--------------|


  E  E  E  E  E  Q.        E  E  E  E  E  E  E  E     E  E  Q    Q    Q
------------------------|--------------------------|-----------------------|
--6--4-----4--6---------|--------------------------|-----------------------|
--------6---------------|--------------------------|-----------------------|
------------------------|--7--7--7--7--7--7--7--7--|--4--2--0----4---------|


  Q    Q    Q    Q       E  E  E  E  E  Q    E     E  E  E  E  E  E  E  E
----------------------|-------------------------|--------------------------|
----------------------|--6--4-----4--6----------|--------------------------|
------------6---------|--------6----------------|--------------------------|
--4----2--------------|----------------------4--|--7--7--7--7--7--7--7--7--|

			Verse:
  E  E  Q    Q    Q       Q    Q    Q    Q       E  E  E  E  E  Q    E
-----------------------|----------------------|-------------------------|
-----------------------|----------------------|--6--4-----4--6----------|
-----------------------|------------6---------|--------6----------------|
--4--2--0----4---------|--4----2--------------|----------------------4--|


  E  H        Q    E     W                   E  E  E  E  E  E  E  E
----------------------|-------------------|--------------------------|
----------------------|-------------------|--------------------------|
----------------------|-------------------|--------------------------|
--7-------------------|-------------------|--4--4--4--4--4--4--4--4--|


  E  E  E  E  E  E  Q       E  E  H        Q       W
-------------------------|----------------------|-------------------|
-------------------------|----------------------|-------------------|
-------------------------|----------------------|-------------------|
--4--4--4--4--4--4-------|--4-------------------|-------------------|

Chorus:
  Q    Q    Q    Q       E  E  E  E  E  Q    E     E  E  E  E  E  E  E  E
----------------------|-------------------------|--------------------------|
----------------------|--6--4-----4--6----------|--------------------------|
------------6---------|--------6----------------|--------------------------|
--4----2--------------|----------------------4--|--7--7--7--7--7--7--7--7--|


  E  E  Q    Q    Q       Q    Q    Q    Q       E  E  E  E  E  Q    E
-----------------------|----------------------|-------------------------|
-----------------------|----------------------|--6--4-----4--6----------|
-----------------------|------------6---------|--------6----------------|
--4--2--0----4---------|--4----2--------------|----------------------4--|


  E  E  E  E  E  E  E  E     E  E  Q    Q    E  E     Q    Q    Q    E  E
--------------------------|------------------------|-----------------------|
--------------------------|------------------------|-----------------------|
--------------------------|------------------------|------------6-------6--|
--7--7--7--7--7--7--7--7--|--4--2--0----4-------4--|--4----2---------------|


  E  E  E  E  E  Q    E     E  E  E  E  E  E  E  E     E  E  Q    Q    Q
-------------------------|--------------------------|-----------------------|
--6--4-----4--6----------|--------------------------|-----------------------|
--------6----------------|--------------------------|-----------------------|
----------------------4--|--7--7--7--7--7--7--7--7--|--4--2--0----4---------|


  Q    Q    Q    Q       E  E  E  E  E  Q.        E  E  E  E  E  E  E  E
----------------------|------------------------|--------------------------|
----------------------|--6--4-----4--6---------|--------------------------|
------------6---------|--------6---------------|--------------------------|
--4----2--------------|------------------------|--7--7--7--7--7--7--7--7--|

			Verse:
  E  E  Q    Q    Q       Q    Q    Q    Q       E  E  E  E  E  Q.
-----------------------|----------------------|------------------------|
-----------------------|----------------------|--6--4-----4--6---------|
-----------------------|------------6---------|--------6---------------|
--4--2--0----4---------|--4----2--------------|------------------------|


  E  E  E  E  E  E  E  E     E  E  Q    Q    Q       Q    Q    Q    Q
--------------------------|-----------------------|----------------------|
--------------------------|-----------------------|----------------------|
--------------------------|-----------------------|------------6---------|
--7--7--7--7--7--7--7--7--|--4--2--0----4---------|--4----2--------------|


  E  E  E  E  E  Q.        E  E  E  E  E  E  E  E     E  E  Q    Q    Q
------------------------|--------------------------|-----------------------|
--6--4-----4--6---------|--------------------------|-----------------------|
--------6---------------|--------------------------|-----------------------|
------------------------|--7--7--7--7--7--7--7--7--|--4--2--0----4---------|

Chorus:
  W                   W                   W                   W
-------------------|-------------------|-------------------|-------------------|
-------------------|-------------------|-------------------|-------------------|
-------------------|-------------------|-------------------|-------------------|
-------------------|-------------------|-------------------|-------------------|


  Q    Q    Q    E  E     E  E  E  E  E  Q.        E  E  E  E  E  E  E  E
-----------------------|------------------------|--------------------------|
-----------------------|--6--4-----4--6---------|--------------------------|
------------6-------6--|--------6---------------|--------------------------|
--4----2---------------|------------------------|--7--7--7--7--7--7--7--7--|


  E  E  Q    Q    Q       Q    Q    Q    Q       E  E  E  E  E  Q.
-----------------------|----------------------|------------------------|
-----------------------|----------------------|--6--4-----4--6---------|
-----------------------|------------6---------|--------6---------------|
--4--2--0----4---------|--4----2--------------|------------------------|


                                                                ^
  E  E  E  E  E  E  E  E     E  E  Q    Q    Q       E  E  Q    Q    E  E
--------------------------|-----------------------|------------------------|
--------------------------|-----------------------|------------------------|
--------------------------|-----------------------|------------------------|
--7--7--7--7--7--7--7--7--|--4--2--0----4---------|--4--4--4----4-------4--|


             ^
  E  E  Q    Q    Q       E  E  E  E  E  E  E  E     E  E  Q    Q    Q
-----------------------|--------------------------|-----------------------|
-----------------------|--------------------------|-----------------------|
-----------------------|--------------------------|-----------------------|
--4--4--4----4---------|--7--7--7--7--7--7--7--7--|--4--2--0----4---------|

Bridge:
  Q    Q    Q    Q       E  E  E  E  E  Q.        E  E  E  E  E  E  E  E
----------------------|------------------------|--------------------------|
----------------------|--6--4-----4--6---------|--------------------------|
------------6---------|--------6---------------|--------------------------|
--4----2--------------|------------------------|--7--7--7--7--7--7--7--7--|


  E  E  Q    Q    Q       E  Q    E  E  Q    E     E  Q    E  E  Q    E
-----------------------|------------------------|------------------------|
-----------------------|------------------------|------------------------|
-----------------------|------------------------|------------------------|
--4--2--0----4---------|--4-------4--4-------4--|--4-------4--4-------4--|


  E  E  E  E  E  E  E  E     E  E  Q    Q    E  E     Q    Q    Q    E  E
--------------------------|------------------------|-----------------------|
--------------------------|------------------------|-----------------------|
--------------------------|------------------------|------------6-------6--|
--7--7--7--7--7--7--7--7--|--4--2--0----4-------4--|--4----2---------------|


  E  E  E  E  E  Q.        E  E  E  E  E  E  E  E     E  E  Q    Q    Q
------------------------|--------------------------|-----------------------|
--6--4-----4--6---------|--------------------------|-----------------------|
--------6---------------|--------------------------|-----------------------|
------------------------|--7--7--7--7--7--7--7--7--|--4--2--0----4---------|


  Q    Q    Q    Q       E  E  E  E  E  Q.        E  E  E  E  E  E  E  E
----------------------|------------------------|--------------------------|
----------------------|--6--4-----4--6---------|--------------------------|
------------6---------|--------6---------------|--------------------------|
--4----2--------------|------------------------|--7--7--7--7--7--7--7--7--|

			Verse:
  E  E  Q    Q    Q       W                   W
-----------------------|-------------------|-------------------|
-----------------------|-------------------|-------------------|
-----------------------|-------------------|-------------------|
--4--2--0----4---------|-------------------|-------------------|


  W                   W                   Q    Q    Q    Q
-------------------|-------------------|----------------------|
-------------------|-------------------|----------------------|
-------------------|-------------------|------------6---------|
-------------------|-------------------|--4----2--------------|


  E  E  E  E  E  Q.        E  E  E  E  E  E  E  E     E  E  Q    Q    Q
------------------------|--------------------------|-----------------------|
--6--4-----4--6---------|--------------------------|-----------------------|
--------6---------------|--------------------------|-----------------------|
------------------------|--7--7--7--7--7--7--7--7--|--4--2--0----4---------|


  Q    Q    Q    E  E     E  E  E  E  E  Q.        W
-----------------------|------------------------|-------------------|
-----------------------|--6--4-----4--6---------|-------------------|
------------6-------6--|--------6---------------|-------------------|
--4----2---------------|------------------------|-------------------|


  W                   Q    Q    Q    Q       E  E  E  E  E  Q.
-------------------|----------------------|------------------------|
-------------------|----------------------|--6--4-----4--6---------|
-------------------|------------6---------|--------6---------------|
-------------------|--4----2--------------|------------------------|

					   Chorus:
  E  E  Q    H           W                   Q    Q    Q    Q
----------------------|-------------------|----------------------|
----------------------|-------------------|----------------------|
----------------------|-------------------|------------6---------|
--7-------------------|-------------------|--4----2--------------|


  E  E  E  E  E  Q.        E  E  E  E  E  E  E  E     E  E  Q    Q    Q
------------------------|--------------------------|-----------------------|
--6--4-----4--6---------|--------------------------|-----------------------|
--------6---------------|--------------------------|-----------------------|
------------------------|--7--7--7--7--7--7--7--7--|--4--2--0----4---------|


  Q    Q    Q    Q       E  E  E  E  E  Q.        E  E  E  E  E  E  E  E
----------------------|------------------------|--------------------------|
----------------------|--6--4-----4--6---------|--------------------------|
------------6---------|--------6---------------|--------------------------|
--4----2--------------|------------------------|--7--7--7--7--7--7--7--7--|

						Outro:
  E  E  Q    Q    Q       Q    Q    Q    Q       E  E  E  E  E  Q.
-----------------------|----------------------|------------------------|
-----------------------|----------------------|--6--4-----4--6---------|
-----------------------|------------6---------|--------6---------------|
--4--2--0----4---------|--4----2--------------|------------------------|


  E  E  E  E  E  E  E  E     E  E  Q    Q    Q       Q    Q    Q    E  E
--------------------------|-----------------------|-----------------------|
--------------------------|-----------------------|-----------------------|
--------------------------|-----------------------|------------6-------6--|
--7--7--7--7--7--7--7--7--|--4--2--0----4---------|--4----2---------------|


  E  E  E  E  E  Q.        E  E  E  E  E  E  E  E     E  E  Q    Q    Q
------------------------|--------------------------|-----------------------|
--6--4-----4--6---------|--------------------------|-----------------------|
--------6---------------|--------------------------|-----------------------|
------------------------|--7--7--7--7--7--7--7--7--|--4--2--0----4---------|


  Q    Q    Q    E  E     E  E  E  E  E  Q.        E  E  E  E  E  E  E  E
-----------------------|------------------------|--------------------------|
-----------------------|--6--4-----4--6---------|--------------------------|
------------6-------6--|--------6---------------|--------------------------|
--4----2---------------|------------------------|--7--7--7--7--7--7--7--7--|


  E  E  Q    Q    Q       Q    Q    Q    Q       E  E  E  E  E  Q.
-----------------------|----------------------|------------------------|
-----------------------|----------------------|--6--4-----4--6---------|
-----------------------|------------6---------|--------6---------------|
--4--2--0----4---------|--4----2--------------|------------------------|

						    (starts fading out)
  E  E  E  E  E  E  E  E     E  E  Q    Q    Q       Q    Q    Q    Q
--------------------------|-----------------------|----------------------|
--------------------------|-----------------------|----------------------|
--------------------------|-----------------------|------------6---------|
--7--7--7--7--7--7--7--7--|--4--2--0----4---------|--4----2--------------|


  E  E  E  E  E  Q.        E  E  E  E  E  E  E  E     E  E  Q    Q    Q
------------------------|--------------------------|-----------------------|
--6--4-----4--6---------|--------------------------|-----------------------|
--------6---------------|--------------------------|-----------------------|
------------------------|--7--7--7--7--7--7--7--7--|--4--2--0----4---------|


  Q    Q    Q    Q       E  E  E  E  E  Q.        E  E  E  E  E  E  E  E
----------------------|------------------------|--------------------------|
----------------------|--6--4-----4--6---------|--------------------------|
------------6---------|--------6---------------|--------------------------|
--4----2--------------|------------------------|--7--7--7--7--7--7--7--7--|


  E  E  Q    Q    Q       Q    Q    Q    Q       E  E  E  E  E  Q.
-----------------------|----------------------|------------------------|
-----------------------|----------------------|--6--4-----4--6---------|
-----------------------|------------6---------|--------6---------------|
--4--2--0----4---------|--4----2--------------|------------------------|


  E  E  E  E  E  E  E  E     E  E  Q    Q    Q
--------------------------|-----------------------||
--------------------------|-----------------------||
--------------------------|-----------------------||
--7--7--7--7--7--7--7--7--|--4--2--0----4---------||


Duration Legend
---------------
W - whole
H - half
Q - quarter
E - 8th
S - 16th
T - 32nd
X - 64th
. - note dotted
|-n-|  - n-tuplets


Tablature Legend
----------------
L - tied note
x - dead note
g - grace note
(n) - ghost note
> - accentuded note
NH - natural harmonic
AH - artificial harmonic
TH - tapped harmonic
SH - semi harmonic
PH - pitch harmonic
h - hammer on
p - pull off
b - bend
br - bendRelease
pb - preBend
pbr - preBendRelease
brb - bendReleaseBend
\n/ - tremolo bar dip
\n - tremolo bar dive
-/n - tremolo bar Release up
/n\ - tremolo bar inverted dip
/n - tremolo bar return
-\n - tremolo bar Release down
S - shift slide
s - legato slide
/ -  slide into from below or out of upwards
\ -  slide into from above or out of downwards
~ - vibrato
W - wide vibrato
tr - trill
TP - tremolo picking
T - tapping
S - slap
P - pop
< - fade in
^ - brush up
v - brush down





Comments


Popular Bob Marley tabs & chords
No Woman No Cry 2 Bass Tabs
Rastaman Chant Bass Tabs
Who The Cap Fit Bass Tabs
Easy Skanking Chords
How Many Times Chords
Hurting Inside Chords
Could You Be Love Tabs
Do It Twice Tabs
Chant Down Babylon Ukulele
Talkin Blues Ukulele


Song lyrics



↑ Back to top | Tablatures and chords are parodies/interpretations of the original songs. You may use it for private study, scholarship, research or language learning purposes only
© 2014 AZChords.com Contact us | Privacy policy | DMCA | Add/correct tabs | Request tabs | Top 50 tabs