» » »

All Day And All Night Bass tabs (ver.2)

Artists:  A B C D E F G H I J K L M N O P Q R S T U V W X Y Z # 

All Day And All Night Bass tabs (ver.2)

Bob Marley
Rating:
0/5 (0 votes)

Tabs too difficult? Try these video lessons and learn fast.
                -------------------------------------------------------------------------------
			     All Day All Night - The Wailers
-------------------------------------------------------------------------------


Tuning: standard

repetious and a really heavy bass song from the catch a fire (deluxe edition) album, 
when they were "bob marley and the wailers" lol. luv it, send me corrections if you think it
needs any, because this is my first bass tab!

intro
G|---5----------5------------7----7---7----|
D|---7----7-----7------------7--------7----|
A|---7----------7------------8--------8----|
E|-----------------------------------------|

verse
G|-------------------------|
D|---7-7----5--7-----------|
A|--------7--------7-7-----|
E|-----------------------5-|

chorus
G|------------------------------|
D|---5-5------5---3------3------|
A|--------5-7--------3-5---5----| x2
E|------------------------------|

G|---------------------------|
D|---------------------------|
A|---7-7-----8----7-8h7------| x2
E|-------7------8------------|

G|---------------------|
D|----------------5----|
A|--7------5h7h8-------|
E|------7--------------|
back to verse

chorus 2
G|------------------------------|
D|---5-5------5---3------3------|
A|--------5-7--------3-5---5----| x2
E|------------------------------|

G|---------------------------|
D|---------------------------|
A|---7---5-7--8----7-8h7-----| x2
E|-----7---------8-----------|

G|---------------------|
D|----------------5----|
A|--7------5h7h8-------|
E|------7--------------|
back to verse

chorus 3
G|------------------------------|
D|---5------5---3-3------3------|
A|------5-7----------3-5---5----| x2
E|------------------------------|

G|---------------------------|
D|---------------------------|
A|---7---5-7--8----7-8h7-----| x2
E|-----7---------8-----------|

G|---------------------|
D|----------------5----|
A|--7------5h7h5-------|
E|------7--------------|
back to verse


| /  slide up
| \  slide down
| h  hammer-on
| p  pull-off
| ~  vibrato
| +  harmonic
| x  Mute note
===============================================================================
            
Tabs too difficult? Try these video lessons and learn fast.




comments powered by Disqus
↑ Back to top | Tablatures and chords are parodies/interpretations of the original songs. You may use it for private study, scholarship, research or language learning purposes only