» » »

You Aint Going Nowhere Bass tabs (ver.1)

Artists:  A B C D E F G H I J K L M N O P Q R S T U V W X Y Z # 

You Aint Going Nowhere Bass tabs (ver.1)

Bob Dylan
Rating:
0/5 (0 votes)

Hard to play? Try these video lessons and learn fast.
                -------------------------------------------------------------------------------
		   You Aint Going Nowhere - Bob Dylan
-------------------------------------------------------------------------------


Tuning: Standard (EADG)

The problem with this song is that there are several different versions available, 
on which album you get. However, whilst the lyrics vary, the bass and chord pattern remain 
This version os from the Greatest Hits Vol 2. Enjoy!

No Bass In Intro
Bass comes in with singing playing the root notes of the chord sequence

'Clouds so swift...' (x4)
G|---------------------------------------------------------------------------|
D|---------------------------------------------------------------------------|
A|--------------------3------------------------------------------------------|
E|--3--------5-----------------3---------------------------------------------|

Harmonica Solo (x4)
G|---------------------------------------------------------------------------|
D|--------------2----------2---5---------------------------------------------|
A|------2---5----------3-----------3---3---2-----------3---2---5-------------|
E|--3--------------5---------------------------5---3-------------------------|

Verse 3 & 4 (x8)
G|---------------------------------------------------------------------------|
D|--------------2----------2---5---------------------------------------------|
A|------2---5----------3-----------3---3---2-----------3---2---5-------------|
E|--3--------------5---------------------------5---3-------------------------|
            
Hard to play? Try these video lessons and learn fast. | Correct




comments powered by Disqus
↑ Back to top | Tablatures and chords are parodies/interpretations of the original songs. You may use it for private study, scholarship, research or language learning purposes only