» » »

Bob Dylan, When The Deal Goes Down Tabs (ver.1)

Artists:  A B C D E F G H I J K L M N O P Q R S T U V W X Y Z # 

When The Deal Goes Down Tabs (ver.1)

Bob Dylan Tabs
 Rating:
4/5 (4 votes)
When The Deal Goes Down lessons Tabs too difficult? Try these video lessons and learn fast
                Artist  : Bob Dylan
Track   : When The Deal Goes Down
Album   : Modern Times (2006)
I am    : Mohamed Hassan, 22, Egypt

 
The song is in C#,and is transposed to C by using a capo on 1st Fret.

C  : 032010
Em : 022000
F  : 133211 or xx3211
G  : 320003
G7 : x33463
Dm : xx0231

you can use light sturmming or pickin' whichever you think sound better.

Capo 1st Fret:

Intro :

    C          Em    F           G
|-1s3--3-----|-3s5-|-5s8--5---5-|-3---|
|--------6---|-----|--------6---|-----|
|----------5-|-----|------------|-----|
|------------|-----|------------|-----|
|------------|-----|------------|-----|
|------------|-----|------------|-----|

       C            Em            F              G7
In the still of the night, in the world's ancient light
      C           Dm     C          G
Where wisdom grows up in strife
   C           Em     F        G7
My bewildering brain, toils in vain
            C               Dm          C         
Through the darkness on the pathways of life
     F         G7               C            Am
Each invisible prayer is like a cloud in the air
F              C       Dm      G
Tomorrow keeps turning around
   C           Em      F        G7
We live and we die, we know not why
                 C           Dm         C
But I'll be with you when the deal goes down 

We eat and we drink, we feel and we think
Far down the street we stray
I laugh and I cry and I'm haunted by
Things I never meant nor wished to say
The midnight rain follows the train
We all wear the same thorny crown
Soul to soul, our shadows roll
And I'll be with you when the deal goes down

Solo: (Overdriven guitar with capo on 1st fret)
====
 C                           Em   F            G7
|-------------------------------|------------------|
|-------------------------13-10-|------------------|
|-9-10-10s12-12-(12)-9-12-------|-10-9-9s7-7-9-----|
|-------------------------------|--------------10--|
|-------------------------------|------------------|
|-------------------------------|------------------|
 C               Dm          C
|-------------------|----------|
|------------8-10-8-|-12-15-13-|
|-4s5-7-9-10--------|----------|
|-------------------|----------|
|-------------------|----------|
|-------------------|----------|


The moon gives light and shines by night
I scarcely feel the glow
We learn to live and then we forgive
O'er the road we're bound to go
More frailer than the flowers, these precious hours
That keep us so tightly bound
You come to my eyes like a vision from the skies
And I'll be with you when the deal goes down

Solo: (Overdriven guitar with capo on 1st fret)
 C               Em       F  G    C          Dm         C               
|-----------|-------------------|----------------|---------|
|-----------|-------------------|----------------|---------|
|-----------|-------------------|----------------|---------|
|-----------|-------------------|--------5-5-7p5-|-5-4-3-2-|
|-----------|-----0---0-3-5-5p3-|-3-3-5s7--------|---------|
|-0-0-1-3-3-|-0-3---3-----------|----------------|---------|

I picked up a rose and it poked through my clothes
I followed the winding stream
I heard the deafening noise, I felt transient joys
I know they're not what they seem
In this earthly domain, full of disappointment and pain
You'll never see me frown
I owe my heart to you, and that's sayin' it true
And I'll be with you when the deal goes down

Outro : C Em F G#m G#m Gm  C
----------------------------------------------------  
            
Submit corrections

comments powered by Disqus
↑ Back to top | Bob Dylan Tabs for When The Deal Goes Down. Lyrics for acoustic guitar and electric guitar. Tablatures and chords are parodies/interpretations of the original songs. You may use it for private study, scholarship, research or language learning purposes only