» » »

Bob Dylan, Tweedle Dum And Tweedle Dee Tabs (ver.1)

Artists:  A B C D E F G H I J K L M N O P Q R S T U V W X Y Z # 

Tweedle Dum And Tweedle Dee Tabs (ver.1)

Bob Dylan Tabs
Rating:
0/5 (0 votes)
Tweedle Dum And Tweedle Dee lessons Tabs too difficult? Try these video lessons and learn fast
                Tuning: standard


This is the first track off of Dylans new album so I figured it out and now 
Im tabbing it out, hope you enjoy

Heres the tablature

Intro in B

----------------------  --------------------
----------------------  --------------------
----------------------  --------------------
----------------------  --------------------
--2---5---2-----------  -------2---5---2----  3 times
---------------5------  --2--5------------5-

Tab in the E chord proceeded by B

--------------/--------------/-------
--------------/--------------/-------
--------------/--------------/-------
-4--3--2---0--/-------0---1--/--2----
--------------/-2---4--------/-------
--------------/--------------/-------


After lines 5 & 7

-----7------------------------------------------------------
-8/9-----10x-----------------------------------------------
----------------7 bend--up--to--8--------------------------
------------------------------------9----------------------
-----------------------------------------------------------
-----------------------------------------------------------


Now for the anticipated chords and lyrics

[B]Tweedle Dum and Tweedle Dee
They're throwing knives into the trees
Two big bags of dead mans bones
Got their noses to the grindstones
[E]Living in the land of Nod
[B]Trusting their fate to the hands of God
[E]They pass by so silently
[B]Tweedle Dum and tweedle Dee

Well they are going to the country they're going to retire
They're taking a street car named desire
Looking at the window with a pecan pie
Lots of thingd they'd like they'd never buy
Neither one want to turn and run
And making a voyage to the sun
his masters voice is calling me
Said tweedle dum to tweedle dee

Tweedle Dee and Tweedle Dum
All that and more and then some
They walk among the stately trees
They know the secrets of the breeze
Tweedle dee said to tweedle dum
Your presence is obnoxious to me
Feel like a baby sitting on a womans knee
Tweedle Dum and Tweedle Dee

Well the rains beating down on a window pane
I've got love for you and its all in vain
Brains in a pot, They're beginning to boil
They're dripping with Garlic and Olive Oil
Tweedle Dums on his hands and knees
Saying Throw me something mister, please
Whats good for you is good for me
Said Tweedle Dum to Tweedle Dee

Well they're living in a happy harmony
Tweedle Dum and Tweedle Dee
They're one day older and one day short
They got a paid permit and a police escort
They're lying low and They're making hay
They seem determined to go all the way
They run a brick and tile company
Tweedle Dum and Tweedle Dee

Well a childish dream is a deathless need
And a noble truth is a sacred creed
My pretty baby shes looking around
Shes wearing a multi thousand dollar gown
Tweedle Dee is a low down sorry old man
Tweedle Dum he'll stab you where you stand
I've had too much of your company
Said Tweedle Dum to Tweedle Dee


Well brothers and sisters that about does it but i shall post more dylan 


_________________________________________________________________
            
Submit corrections

comments powered by Disqus
↑ Back to top | Bob Dylan Tabs for Tweedle Dum And Tweedle Dee. Lyrics for acoustic guitar and electric guitar. Tablatures and chords are parodies/interpretations of the original songs. You may use it for private study, scholarship, research or language learning purposes only