» » »

Tommorow Is A Long Time Tabs (ver.1)

Artists:  A B C D E F G H I J K L M N O P Q R S T U V W X Y Z # 

Tommorow Is A Long Time Tabs (ver.1)

Bob Dylan
Rating:
0/5 (0 votes)

Hard to play? Try these video lessons and learn fast.
                



Standard tuning, capo 3rd fret (sounding key Bb major)

Chords:

C/g    3x2013
G      320003
D/f#   200232
D7/f#  20021(2)

The C/g G at most of the line endings is played like the figure at the beginning of the intro.

Intro (same picking pattern throughout):

  C/g         G   C/g         G       G                         C/g
  :   .   .   .     :   .   .   .     :   .   .   .     :   .   .   .
|-----------------|-----------------|-----------------|---3-------------|
|-----1------(0)--|-----1------(0)--|-----0-----------|-----------------|
|-----------0-----|-----------0-----|-----------0-----|-----------0-----|
|-----2-------0---|-----2-------0---|-----0-------0---|-----0-------2---|
|-----------------|-----------------|-----------------|-----------------|
|-3-------3-------|-3-------3-------|-3-------3-------|-3-------3-------|

  G     C/g   G                     C/g         G   C/g         G
  |   .   .   .   |   .   .   .     |   .   .   .   |   .   .   .
|---------------------------------|---------------------------------|
|-----0h1----(0)------------------|-----1------(0)------1------(0)--|
|-----------0---------------0-----|-----------0---------------0-----|
|-----0h2-----0-------0-------0---|-----2-------0-------2-------0---|
|---------------------------------|---------------------------------|
|-3-------3-------3-------3-------|-3-------3-------3-------3-------|

  G
  |   .   .   .   |   .   .   .
|---------------------------------|
|---------------------------------|
|-----------0---------------0-----|
|-----0-------0-------0-------0---|
|---------------------------------|
|-3-------3-------3-------3-------|
                          If today...

     G       C/g            G          C/g  G
If today was not an endless highway, *)
     G         C/g           G
If tonight was not a crooked trail,
   C/g      D/f#          C/g       G
If tomorrow wasn't such a long time,
     C/g                 D/f#              C/g G
Then lonesome would mean nothing to you at all.

         C/g        D/f#              C/g  G
Yes, and only if my own true love was waitin',
   C/g              D/f#           C/g     G
if I could hear her heart a-softly poundin',
         C/g     D/f#          C/g   G
Yes, and only if she was lyin' by me,
    C/g . . .     D7/f# . . .     C/g  G | C/g  G | C/g   G | G
I'd lie     in my bed       once again.
            
Hard to play? Try these video lessons and learn fast. | Correct




comments powered by Disqus
↑ Back to top | Tablatures and chords are parodies/interpretations of the original songs. You may use it for private study, scholarship, research or language learning purposes only