» » »

Bob Dylan, Tombstone Blues Tabs (ver.1)

Artists:  A B C D E F G H I J K L M N O P Q R S T U V W X Y Z # 

Tombstone Blues Tabs (ver.1)

Bob Dylan Tabs
 Rating:
4/5 (4 votes)
Tombstone Blues lessons Tabs too difficult? Try these video lessons and learn fast
                The sweet pretty things are in bed now of course
    E                           A    E
The city fathers they're trying to endorse
    E                A             E
The reincarnation of Paul Revere's horse
        E           A          E
But the town has no need to be nervous

The ghost of Belle Starr she hands down her wits
To Jezebel the nun she violently knits
A bald wig for Jack the Ripper who sits
At the head of the chamber of commerce

A
Mama's in the fact'ry
          E
She ain't got no shoes
A
Daddy's in the alley
     E
He's lookin' for food
A
I'm in the kitchen *)
                   E
With the tombstone blues

--------------------------------------------------------------------------------

Solo licks:

Main Riff Throughout        w/ the Tombstone Blues...
||--2-----------------|-||-------------------------------|-----------------|
||----5----2----2-----|-||-------17^----17^--------------|-----------------|
||*-----4^---4^---2---|-||*---16-----16-----16-16^-14----|-----------------|
||*-----------------4-|-||*---------------------------16-|-----------------|
||--------------------|-||-------------------------------|-----------------|
||--------------------|-||-------------------------------|-----------------|

||------12-----------------------------------|-----------------------------|
||--12^----12-12-12-12-10---12^--------------|-----------------------------|
||*-----------------------------11-----------|-----------------------------|
||*------------------------------------------|-----------------------------|
||---------------------------------14-14^----|-----------------------------|
||----------------------------------------14-|-----------------------------|
            
Submit corrections

comments powered by Disqus
↑ Back to top | Bob Dylan Tabs for Tombstone Blues. Lyrics for acoustic guitar and electric guitar. Tablatures and chords are parodies/interpretations of the original songs. You may use it for private study, scholarship, research or language learning purposes only