» » »

Bob Dylan, The Times They Are A-changin Chords (ver.9)

Artists:  A B C D E F G H I J K L M N O P Q R S T U V W X Y Z # 

The Times They Are A-changin Chords (ver.9)

Bob Dylan Tabs
Rating:
0/5 (0 votes)
The Times They Are A-changin lessons Tabs too difficult? Try these video lessons and learn fast
                "(6)


Standard Tuning


     G                 G            D7       G                       D7
---|--------------------------------------------------------------------------|
---|-------------------8------------10-------------------------------10-------|
---|-12----------------x------------x--------12----------------------x--------|
---|-9-----------------9------------10-------9-----------------------10-------|
---|-10----------------10-----------12-------10----------------------12-------|
---|-x-----------------x------------x--------x-----------------------x--------|
    "Come gather round people where ever you roam and admit that the waters

                            G           G              D7              G
------------------------------------------------------------------------------|
----------------------------------------8--------------10---------------------|
----------------------------12----------x--------------x---------------12-----|
----------------------------9-----------9--------------10--------------9------|
----------------------------10----------10-------------12--------------10-----|
----------------------------x-----------x--------------x---------------x------|
  around you have grown and accept that soon you'll be drenched to the bone

                  D7                          D
------------------------------------------------------------------------------|
------------------10--------------------------10------------------------------|
------------------x---------------------------x-------------------------------|
------------------10--------------------------12------------------------------|
------------------12--------------------------12------------------------------|
------------------x---------------------------x-------------------------------|
 If your time to you is worth savin' then you better start swimming or youll


                           G                D7   G
-----------------------------------------------------------|------------------|
--------------------------------------------10-------------|------------------|
---------------------------12---------------x----12--------|------------------|
---------------------------9----------------10---9---------|------------------|
---------------------------10---------------12---10--------|------------------|
---------------------------x----------------x----x---------|------------------|
 sink like a stone for the times they are a-changin."



     G                          D7       G
Come gather 'round people where ever you roam
                   D7
And admit that the waters around you have grown
    G                             D7              G
And accept it that soon you'll be drenched to the bone
                D7
If your time to you is worth savin'
         D
Then you better start swimmin' or you'll sink like a stone
        G                D7   G
For the times they are a-changin’

     G                       D7                   G
Come writers and critics who prophesize with your pen
                   D7
And keep your eyes wide the chance won't come again
    G                            D7               G
And don't speak too soon for the wheel's still in spin
                       D7
And there's no tellin' who that it's namin'
        D
For the loser now will be later to win
        G                D7   G
For the times they are a-changin’

     G                     D7              G
Come senators, congressmen please heed the call
                   D7
don't stand in the doorway don't block up the hall
    G                         D7         G
For he that gets hurt will be he who has stalled
                    D7
There's a battle outside and it is ragin'
       D
It'll soon shake your windows and rattle your walls
        G                D7   G
For the times they are a-changin’

     G                   D7              G
Come mothers and fathers throughout the land
               D7
And don't criticize what you can't understand
     G                           D7          G
Your sons and your daughters are beyond your command
                 D7
Your old road is rapidly agin'
       D
Please get out of the new one if you can't lend your hand
        G                D7   G
For the times they are a-changin’

    G                    D7          G
The line it is drawn the curse it is cast
             D7
The slow one now will later be fast
       G                D7        G
As the present now will later be past
             D7
The order is rapidly fadin'
        D
And the first one now will later be last
        G                D7   G
For the times they are a-changin’
"            
Submit corrections

comments powered by Disqus
↑ Back to top | Bob Dylan Chords for The Times They Are A-changin. Lyrics for acoustic guitar and electric guitar. Tablatures and chords are parodies/interpretations of the original songs. You may use it for private study, scholarship, research or language learning purposes only