>
 >
Stuck Inside Of Mobile

Stuck Inside Of Mobile Bass Tabs

Bob Dylan - Stuck Inside Of Mobile chords, tabs, tablatures, lyrics

Guitar lessons | Add/correct | Request | Top 50 tabs Artists:  A B C D E F G H I J K L M N O P Q R S T U V W X Y Z 0-9

Stuck Inside Of Mobile Bass Tabs – Bob Dylan

CD, Sheet music, Poster

Do you like Stuck Inside Of Mobile? Share with your friends now
Bass TabsChordsChords v2Chords v3

E-1-------1------1--------------------|
A-------------------------------------|
D--------------------0------0---------|
G-------------------------------------|
Oh the rag-man draws circles

E-1--1---1-1--1---------------------|
A-----------------------------------|
D-----------------0---0-------------|
G-----------------------------------|
Up and down the block.

E-1--1---1-1--1---------------------|
A-----------------------------------|
D-------------------0------0--------|
G-----------------------------------|
I'd ask him what the matter was

E-------------------------------|
A-----1-----1--1--1---1------3--|
D-------------------------------|
G-------------------------------|
But I know that he don't talk.

E--------------------------1--1-|
A-----1-----1--1--1---1---------|
D-------------------------------|
G-------------------------------|
And the ladies treat me kindly

E--------------------------1--1-|
A-------------------------------|
D--0--0---0---------0-----------|
G-------------------------------|
And furnish me with tape


E--------------------------1--1-|
A-------------------------------|
D----0-0--0---------0-----------|
G-------------------------------|
But deep inside my heart


E--------------------------1--1-|
A-------------------------------|
D----0---0---0---------0--------|
G-------------------------------|
I know I can't escape

E--------|
A-0--0-0-|
D--------|
G--------|
Oh Mama,

E--------------------------|
A------0-2-3-0------0-0-0--|
D--------------------------|
G--------------------------|
Can this really be the end

E------1----1--1------------|
A-----------------3--3------|
D-------------------------0-|
G---------------------------|
To be stuck inside of Mobile

E-1---1-1------------------1-|
A---------1--1-1-1-1----1----|
D----------------------------|
G----------------------------|
with the Memphis blues again

The Bass Line is the same for the rest of the song (just repeats)

Well, Shakespear, he's in the alley
With his pointed shoes and his bells.
Speaking to a french girl,
Who says she knows me well.
And I would send a message
To find out if she's talked,
Post the post office has been stolen
And the mail box is locked.
Oh Mama
Can this really be th end
To be stuck inside of Mobile
With the Memphis blus again.


Mona tried to tell me
To stay far away from the train line.
She said that all the railroad men
Drink your blood like wine.
An' I said "Oh, I didn't know that
But then again there's only one I've met
An' he just smoked my eyelids
An' punched my cigarette"
Oh Mama
Can this really be th end
To be stuck inside of Mobile
With the Memphis blus again.


Grandpa died last week
And now he's buried in the rock
But everybody talk about
How badly they were shocked.
But me I expected it to happen
I knew he'd lost control
When he built a fire on main street
And shot it full of holes.
Oh Mama
Can this really be th end
To be stuck inside of Mobile
With the Memphis blus again.


Now the senator can down here
Showing everyone his gun.
Handing out free tickets
To the wedding of his son.
An' me I nearly got busted
An wouldn't it be my luck
To get caught without a ticket
And be discovered beneath a truck
Oh Mama
Can this really be th end
To be stuck inside of Mobile
With the Memphis blus again.


Now the preacher looked so baffled
When I asked him why he dressed
With twenty pounds of headlines
Stapled to his chest
But he cursed when I proved to him
Then I whispered not even you can hide.
You see you're just like me
I hope your satisfied
Oh Mama
Can this really be th end
To be stuck inside of Mobile
With the Memphis blus again.


Now the rainman gave men two cures
Then he said "Jump right in"
The one was Texas medicine
The other railroad gin.
An like a fool I mixed them
An' it strangled up my mind
An' now people just get uglier
An' I have no sense of time.
Oh Mama
Can this really be th end
To be stuck inside of Mobile
With the Memphis blus again.


When Ruthie says come see her
In her honkey-yonk lagoon,
Where I can watch her waltz for free
'Neath her Panamanian moon.
An' I say, "Aw come on now
You must know about my dedutante."
An' she says, "Your debutante knows just what you need
But I know what you want."
Oh Mama
Can this really be th end
To be stuck inside of Mobile
With the Memphis blus again.


Now the bricks lay on Grand Street
Where the neon madmen climb
They all fall there so perfectly.
It all seems so well timed.
An' here I sit so patiently
Waiting to find out what price
You have to pay to get out of
Going through all these things twice
Oh Mama
Can this really be th end
To be stuck inside of Mobile
With the Memphis blus again.





Comments


Popular Bob Dylan tabs & chords
Apple Suckling Tree Chords
Ballad In Plain D 1 Chords
Desolation Row Chords
Desolation Row 2 Chords
I Threw It All Away Chords
If You Gotta Go Go Now Chords
Make You Feel My Love 1 Chords
Roll On John Chords
Spirit On The Water Chords
Changing Of The Guards Ukulele


Song lyrics



↑ Back to top | Tablatures and chords are parodies/interpretations of the original songs. You may use it for private study, scholarship, research or language learning purposes only
© 2014 AZChords.com Contact us | Privacy policy | DMCA | Add/correct tabs | Request tabs | Top 50 tabs