» » »

Romance In Durango Bass tabs (ver.1)

Artists:  A B C D E F G H I J K L M N O P Q R S T U V W X Y Z # 

Romance In Durango Bass tabs (ver.1)

Bob Dylan
Rating:
0/5 (0 votes)

Hard to play? Try these video lessons and learn fast.
                ROMANCE IN DURANGO
BOB DYLAN
THE ROLLING THUNDER REVUE


INTRO

G|-----------------3-5/9-7-5-------------------|
D|------------3-5---------------5-3------------|
A|---3--3-5--------------------------3---------|
E|-3-------------------------------------------|

VERSE

"hot chili peppers in the blistering sun"
G|-----------------------|----------------------|
D|--------------3-5-----|----3------------------|
A|--------3-5-----------|-----------3*----------|
E|-3-(5)----------------|-----------------------|

"no llores, mi querida / dios nos vigila / soon the horse will take us to durango"
G|-----------------------|
D|-5--5--5--5--3---------|
A|---5--5--5--5--3-------|
E|-----------------------|
play intro x2

The bassist does lots of variations and improv, so its hard to tab all of it, but it is 
basic, so good luck!
            
Hard to play? Try these video lessons and learn fast. | Correct




comments powered by Disqus
↑ Back to top | Tablatures and chords are parodies/interpretations of the original songs. You may use it for private study, scholarship, research or language learning purposes only