» » »

Rollin Tumblin Tabs (ver.1)

Artists:  A B C D E F G H I J K L M N O P Q R S T U V W X Y Z # 

Rollin Tumblin Tabs (ver.1)

Bob Dylan
Rating:
0/5 (0 votes)

Hard to play? Try these video lessons and learn fast.
                Artist  : Bob Dylan
Track   : Rollin' & Tumblin'
Album   : Modern Times (2006)
I am    : Mohamed Hassan, 22, Egypt

Another Amazing track,I'll just put down the intro solo,and the main riff
repeated througout,the riff is played with various variations,you can pick it up

|------------------------------------------------------|
|----------11-11-11-11---11-11-11-11-11-11s-----9------|
|-10-10-10---------------------------------8s10--------|
|-------------------------------------------------10s8-|
|------------------------------------------------------|
|------------------------------------------------------|
|------------------------------------------------------|

 Bb                              F                          Bb
---------------------------------------------------------------|
---------------------------------------------------------------|
-----6------6--------6-------6---------------------------------|
-6s8---8p6-8--8-8-88---8p6-8---8-------------------------------|
----------------8-88-------------6s8-8-8-8s6---6---4s6s4-------|
---------------------------------------------6---6-------9-8-6-| then back to riff

Verse can be played like A or B ,usually begins with an A,riff is played over Bb:

A: |----------------|        B: |------------------|
   |----------------|           |------------------|
   |-----6------6---|           |-----6-------6----|
   |-6-8---8p6-8--8-|           |-8-88--8p6-8---8--|
   |----------------|           |-8-88-------------|
   |----------------|           |------------------|

  Eb                                            Bb
I rolled and I tumbled, I cried the whole night long  (Riffx3)
Eb                                              Bb
I rolled and I tumbled, I cried the whole night long  (Riffx2)
F                                             Bb
Woke up this mornin', I must have bet my money wrong  (Riffx2)
            
Hard to play? Try these video lessons and learn fast. | Correct




comments powered by Disqus
↑ Back to top | Tablatures and chords are parodies/interpretations of the original songs. You may use it for private study, scholarship, research or language learning purposes only