>
 >
Railroad Bill

Railroad Bill Guitar Tabs

Bob Dylan - Railroad Bill chords, tabs, tablatures, lyrics

Guitar lessons | Add/correct | Request | Top 50 tabs Artists:  A B C D E F G H I J K L M N O P Q R S T U V W X Y Z 0-9

Railroad Bill Guitar Tabs – Bob Dylan

CD, Sheet music, Poster

Do you like Railroad Bill? Share with your friends now
Tabs
              RAILROAD BILL     BOB DYLAN







               C                                    
  .   .   .     :   .   .   .     :   .   .   .     :   .   .   .     :   .   .   .
--------------|-----3-----------|-3---------3-----|-3---------1-----|-0---------------|
--------------|-----------------|-----------------|-----------------|-----------------|
--------------|-----------0-----|-------0---------|-------0---------|-----------------|
--------------|--------(2)------|-------------2---|-------------2---|-----------------|
------0---2---|-3---3-------3---|-3---3-----------|-3---3-----------|-----------------|
-[3]----------|-----------------|-----------------|-----------------|-----3---2---1---|

  E                                   F
  :   .   .   .     :   .   .   .     :   .   .   .     :   .   .   .
|-----0-0---------|-------0---------|-----1-1---------|-------1---------|
|-----0-0---------|-----------0-----|-----1-1---1-----|-----------1-----|
|-----------1-----|-0h1-------------|-----2-2-----2---|-0h2-------------|
|-----------------|-------------2---|-0h3-------------|-----3-------3---|
|-----------------|-----------------|-----------------|-----------------|
|-0-----------0---|-----0---0-------|-----------------|-----------------|

  C                 G                 C
  :   .   .   .     :   .   .   .     :   .   .   .     :   .   .   .
|-------0---------|-------3---------|-0---------0-----|-0---------0-----||
|-----------1-----|-----------0-----|-----------------|-----------------||
|-0---------------|-----------------|-------0---------|-------0---------||
|-----------------|-----------------|-------------2---|-------------2---||
|-----3-------3---|-------------0---|-3---3-----------|-3---3-----------||
|-----------------|-3---3-----------|-----------------|-----------------||

  C                                    
  :   .   .   .     :   .   .   .     :   .   .   .     :   .   .   .
|-3---------3-----|-3---------3-----|/5-----5---------|-3-----0---------|
|-----------------|-----------------|-----------------|-----------1-----|
|-------0---------|-------0---------|(0)--------0-----|-----------------|
|-------------2---|-------------2---|(4)----------4---|-----------------|
|-3---3-----------|-3---3-----------|/5---5-----------|-3---3-----------|
|-----------------|-----------------|-----------------|-------------0---|

  E                                   F
  :   .   .   .     :   .   .   .     :   .   .   .     :   .   .   .
|-------0---------|-------0---------|-----1-1---------|-----1-1---------|
|-----------------|-----------0-----|-----1-1---1-----|-1---1-1---1(1)--|
|-0h1-------1-----|-0h1-------------|-----2-2---------|(0h2)2-2--(2-2)--|
|-----------------|-------------2---|-0---------------|----------(3)3---|
|-----------------|-----------------|-----3-------0---|-----------------|
|-----0---0---0---|-----0---0-------|-----------------|-----------------|

  C                 G                 C
  :   .   .   .     :   .   .   .     :   .   .   .     :   .   .   .
|-------0---------|------(3)--------|-0---------0-----|-0---------0-----||
|-----------1-----|-----------------|-----------------|-----------------||
|-0---------------|-----------0-----|-------0---------|-------0---------||
|-----------------|-------------0---|-------------2---|-------------2---||
|-----3-------3---|-----------------|-3---3-----------|-3---3-----------||
|-----------------|-3---3-----------|-----------------|-----------------||

C              
Railroad Bill, he ain't so bad,
E                         F
killed his mommy, shot a [round] in his dad [/around with?]
C        G        C
Ride old Railroad Bill.

[2 instr. verses, 2nd with harp]





Comments


Popular Bob Dylan tabs & chords
As I Went Out One Morning 1 Chords
Born In Time Chords
Things Have Changed Chords
Workingmans Blues 2 2 Chords
I'll Be Your Baby Tonight Tabs
It Takes A Lot To Laugh Tabs
Man On The Street Tabs
4th Time Around Ukulele
Can You Please Crawl Out Your Window Ukulele
Every Grain Of Sand Ukulele


Song lyrics



↑ Back to top | Tablatures and chords are parodies/interpretations of the original songs. You may use it for private study, scholarship, research or language learning purposes only
© 2014 AZChords.com Contact us | Privacy policy | DMCA | Add/correct tabs | Request tabs | Top 50 tabs