» » »

My Back Pages Tabs (ver.3)

Artists:  A B C D E F G H I J K L M N O P Q R S T U V W X Y Z # 

My Back Pages Tabs (ver.3)

Bob Dylan
Rating:
0/5 (0 votes)

Tabs too difficult? Try these video lessons and learn fast.
                -------------------------------------------------------------------------------
                             My Back Pages (Solo) - Bob Dylan
-------------------------------------------------------------------------------

I hope you enjoy this tab
Tuning:EADGBE

My Back Pages (Solo) - Bob Dylan from "The 30th Anniversary Concert Celebration"
First Solo by Eric Clapton

1:49 min
e|---------------------------------------------------------------------------|
B|_----17---19b----19b----19b----19br19---17h19-17----------17h19b----19r17--|
G|--/18-------------------------------------------------18-------------------|
D|---------------------------------------------------------------------------|
A|---------------------------------------------------------------------------|
E|---------------------------------------------------------------------------|

e|------------------------|----/16-17-17b---1919-19b-------------------------|
B|---19r17----------------|-----------------------------19br17--19-19r17---17|
G|-----------16/18--16----|----------------------------------------------18--|
D|------------------------|--------------------------------------------------|
A|------------------------|--------------------------------------------------|
E|------------------------|--------------------------------------------------|

e|---------------------------------------------------------------------------|
B|------------17h19br-----17-------------------17-19brb---19b--17h19---------|
G|---16h18---------------------16-------16/18--------------------------------|
D|---------------------------------------------------------------------------|
A|---------------------------------------------------------------------------|
E|---------------------------------------------------------------------------|

e|---------------------------------------|-----------------------------------|
B|---20br------19-19---17------------17--|-----------------------------------|
G|---------------------------18--16------|-------------9--11-11h9-------9----| . . . .
D|---------------------------------------|---6/9---11---------------11-------|
A|---------------------------------------|-----------------------------------|
E|---------------------------------------|-----------------------------------|

************************************

| /   slide up
| \   slide down
| h   hammer-on
| p   pull-off
| ~   vibrato
| +   harmonic
| x   Mute note
| b   Bend
| pb  Pre-bend
| br  Bend release
| pbr Pre-bend release
| brb Bend release bend

************************************
            
Tabs too difficult? Try these video lessons and learn fast.




comments powered by Disqus
↑ Back to top | Tablatures and chords are parodies/interpretations of the original songs. You may use it for private study, scholarship, research or language learning purposes only