>
 >
Moonlight

Moonlight Guitar Tabs

Bob Dylan - Moonlight chords, tabs, tablatures, lyrics

Guitar lessons | Add/correct | Request | Top 50 tabs Artists:  A B C D E F G H I J K L M N O P Q R S T U V W X Y Z 0-9

Moonlight Guitar Tabs – Bob Dylan

CD, Sheet music, Poster

Do you like Moonlight? Share with your friends now
Tabs


This one uses some of those strange chords so heres how you play them

Bb6 x1303x
Dm7-5 xx0111
Cm7-5 x3434x
Dm/F xx3231
B x23131
C# x45353
Bb/D x5333x
C9 x35333
F+ x4322x

--------------------/-1--3-4-------3-----/------------------/
-----3--------3-----/-1-------3----3-----/-4--6-4--3--1-----/
-----0-----3--3-----/-1-------4----4-----/-3-------2--2-----/
---3-----3-5--5---0-/---------3----------/-4-------3--3-----/
-1------------------/---------5--------3-/----------------1-/
--------------------/--------3-----------/------------------/

-------------------/
-3---3-----4---2---/
-3---3-----3---2---/
-3---3-----5---3---/
-1---2--3------4---/
-------------------/

The [Bb]seasons, they are [B]turning
And my [Cm7}sad heart is [C#]yearning
To hear {Bb/D]again the songbirds {Bb}sweet melodious [C9]tone
[Bb]Wont [Gm7}you
[Dm7]Meet [G7]me [Cm7-5]out in the
[Dm/F]Moon[F]light [Bb]alone  B  Cm7  F

The dusky light the day is losing
Orchids, poppies, black eyes susan
The earth and sky that melts with flesh and bone
Wont you meet me
[Cm7-5]Out in the [Dm/F]moon[F]light [Bb]alone  F+

The air is thick and heavy
All along the levee
Where the Geese into the country side have flown
Wont you meet me
Out in the moonlight alone

Well Im [Gm]preaching peace and harmony
The [Cm]blessings of tranquility
Yet I [Gm]know when the time is right to [C7]strike
I [Bb]take you across the river dear
[C7]You've no need to linger here
[Dm/F]I know the [F+]kind of things you [F]like  F+

(this next little tab is throughout)

-10--10--9--9---/--8--9--9---/
-10--10--8--8---/--8--9--9---/
-10--10--9--9---/--8--8--8---/
-10-------------/------------/
-8--------------/------------/
----------------/------------/

The clouds are turning crimson
The leaves fall on the limbs
The branches cast their shadows over stone
Wont you meet me
Out in the moonlight alone

The boulevards of cypress trees
The masquerades of birds and trees
The petals pink and white, the wind has blown
Wont you meet me
Out in the moonlight alone

The trailing moss in mystic glow
The purple blossom soft as snow
My tears keep flowing to the sea
Doctor, Lawyer, Indian chief
It takes a thief to catch a thief
For whom does the bell toll for, love?
It tolls for you and me

Old pulse running through my palm
The sharp hills are rising from
Yellow fields with twisted oaks that groan
Wont you meet me
Out in the moonlight alone

End it with


----------------------------------------------5-
--------------------------------------4--3----3-
-------------------------------5---3----------3-
------------------------/5--3-----------------3-
-------------------3-1--------------------------
-2-2-2-2/4--2-0-1-------------------------------

Well thats moonlight, pretty complicated i know but a real good one in the 
end





Comments


Popular Bob Dylan tabs & chords
Do Right To Me Baby Do Unto Others Bass Tabs
Every Grain Of Sand Chords
Farewell Angelina 1 Chords
I Dreamed I Saw St Augustine 1 Chords
I Want You 5 Chords
Just Like A Woman 2 Chords
Lily Chords
Mama You Been On My Mind 4 Chords
Tangled Up In Blue 2 Chords
Sally Girl Tabs


Song lyrics



↑ Back to top | Tablatures and chords are parodies/interpretations of the original songs. You may use it for private study, scholarship, research or language learning purposes only
© 2014 AZChords.com Contact us | Privacy policy | DMCA | Add/correct tabs | Request tabs | Top 50 tabs