» » »

Bob Dylan, Lilly Rosemary And The Jack Of Hearts Bass tabs (ver.1)

Artists:  A B C D E F G H I J K L M N O P Q R S T U V W X Y Z # 

Lilly Rosemary And The Jack Of Hearts Bass tabs (ver.1)

Bob Dylan Tabs
Rating:
0/5 (0 votes)
Hard to play? Try these video lessons and learn fast.
                Bob Dylan
Lilly, Rosemary and the Jack Of Hearts
  Riff 1
G|--------------------------------------------------|
D|---------5--5-------------------------------------|
A|--5--5----5--5--5--5--5--5--5--0--2--4--5---------|
E|----5--5------------5--5--5-----------------------|
  Riff 2
G|--------------------------------------------------------------------------|
D|--5--5-----------------5--5-----------------------------------------------|
A|-------5--5-------5--5-----5--5--5--4--2--0--5--5-------------------------|
E|--------------5--5------------------------------------5--5--4--4--2--2----| 
  Riff 3
G|----------------------------------|
D|----------------------------------|
A|--5--5--5--5--5--0--2--4--5-------|
E|----5--5--5--5--------------------|

Riff 1 x2
Riff 2 x1
Riff 3 x2

Thats the whole song just listen to it for the change of riffs.
            

comments powered by Disqus
↑ Back to top | Bob Dylan Bass for Lilly Rosemary And The Jack Of Hearts. Lyrics for acoustic guitar and electric guitar. Tablatures and chords are parodies/interpretations of the original songs. You may use it for private study, scholarship, research or language learning purposes only