>
 >
Like A Rolling Stone 1

Like A Rolling Stone 1 Guitar Tabs

Bob Dylan - Like A Rolling Stone 1 chords, tabs, tablatures, lyrics

Guitar lessons | Add/correct | Request | Top 50 tabs Artists:  A B C D E F G H I J K L M N O P Q R S T U V W X Y Z 0-9

Like A Rolling Stone 1 Guitar Tabs – Bob Dylan

CD, Sheet music, Poster

Do you like Like A Rolling Stone 1? Share with your friends now
Bass TabsChordsChords v2Chords v3Chords v4Chords v5Chords v6Chords v7Chords v8TabsTabs v2UkuleleUkulele v2
E||-------------------|-------0-0-0-0-0-0-0-0-0-0-0-0-|
B||-------------------|--1----1-1-1-1-1-1-1-1-1-1-1-1-|
G||-------------------|--0----0-0-0-0-0-2-2-2-2-2-2-2-|
D||-----------------0h|--2----2-2-2-2-0-3-3-3-3-3-3-3-|
A||-----------------0h|--3----3---3---0-------0---0---|
E||-------------------|-------------------------------|


                                                        
--------------0--0--0-----|---------------0-0-0-0-0-0--|
--1----1----1-1--1--1-----|--1----1--1----1-1-1-1-1-1--|
--0----0----0-2--2--2-0---|--0----0--0--0-2-2-2-2-2-0--|
--2----2----0-3--3--3-0h2-|--2----2--2--0-3-3-3-3-3-2--|
--3----3----0-------------|--3----3--3--0-------0------|
--------------------------|----------------------------|


                                                            
-------0-0-0-0-0-0-0-0-0-0-0-0-|----------------1-1--1-1-1-|
--1----1-1-1-1-1-1-1-1-1-1-1---|--1----1--------3-3--3-3-3-|
--0----0-0-0-0-0-2-2-2-2-2-2---|--0-------0--2--2-2--2-2-2-|
--2----2-2-2-2-0-3-3-3-3-3-3---|--2----------0---------0---|
--3----3---3---0---0---0---0---|--3----------0-------------|
-------------------------------|---------------------------|


                                                    
--0--0-0-0-----1--1--1-1----|--3------3--3------3--|
--0--0-0-0-----1--1--1-1----|--3------3--3------3--|
--0--0-0-0-----2--2--2-2----|--4------4--4------4--|
--2------------3--3--3-3----|--5------5--5------5--|
--2---------0--3--3--3-3-0--|----------------------|
----------------------------|----------------------|


                                                       
--3-----3-3--3-3-3-3-3------|-------------1--1--1-----|
--3-----3-3--3-3-3-3-3--0h1-|--1----1-----3--3--3-----|
--4-------4--4-4-4-4-4--x---|--0----0--0--2--2--2-----|
--5-------5--5-5-5-5-5--3---|--2----2-----0--------0--|
----------------------------|--3----3-----0--------0--|
----------------------------|-------------------------|


                                                   
--0--0-0-0-----1---------|--3-----3-3-3-3------3--|
--0--0-0-0-----1---------|--3-----3-3-3-3------3--|
--0--0-0-0-----2------0--|--4-----4-4-4-4------4--|
--2---------0--3------0--|--5-------5---5------5--|
--2---------0--3------0--|------------------------|
-------------------------|------------------------|


                                                                           
--3--3-3-3-3-3-3-3--3-3------|--1-------------------|--3-------------3-2--|
--3--3-3-3-3-3-3-3--3-3---0--|--1------1--1---------|--3-------------3-2--|
--4--4-4-4-4-4-4-4--4-4---0--|--2------2--2----2----|--4-------------4-3--|
--5--5-5-5-5-5-5-5--5-----0--|--3------3--3----3----|--5-------------5-4--|
--------------------------0--|-----------------3----|---------------------|
-----------------------------|----------------------|---------------------|


                                                                          
--1--1-1-1--1--1----1----|--3--3--3--3--3---------|----------------------|
--1--1-1-1--1--1----1----|--3--3--3--3--3------0--|--1---------0---------|
--2--2-2-2--2--2----2----|--4--4--4--4--4------0--|--2---------0---------|
--3--3-3-3--3--3----3----|--5--5--5--5--5------0--|--3---------2------0--|
--3--3-3-3--3--3----3----|---------------------0--|--3------2--2------0--|
-------------------------|------------------------|----------------------|


                                                                            
--1--------------------|--------------------------|------------------------|
--3---------1----1-----|--1-----------0--0--0-----|--3----------1----1-----|
--2---------0----0-----|--2-----------0--0--0--0--|--2----------0----0--0--|
--0------0--2----2-----|--3--3--------2--2--2--0--|--0----0--0--2----2--0--|
--0------0--3----3--0--|--3-----3--0--2--2--2-----|----------0--3----3--0--|
-----------------------|--------------------------|------------------------|


                                                          
-----1-1-1--1--1--1--1-1-1--|----------------------------|
-----3-3-3--3--3--3--3-3-3--|--1--1-1-1-1-1--1--1--1--1--|
-----2-2-2--2--2--2--2-2-2--|--2--2-2-2-2-2--2--2--2--2--|
--0-------------------------|--3--3-3-3-3-3--3--3--3--3--|
--0-------------------------|--3--3-3-3-3-3--3--3--3--3--|
----------------------------|----------------------------|


                                                            
-------3--3-3-3--3-3-3--3-3-|--3-3-3-3-3-3-3-3-3--0-0------|
--3----3--3-3-3--3-3-3--3-3-|--3-3-3-3-3-3-3-3-3--0-0-0----|
--4----4--4-4-4--4-4-4--4-4-|--4-4-4-4-4-4-4-4-4------0----|
--5----5----5-5--5---5--5---|--5---5---5---5---5------0----|
----------------------------|------------------------------|
----------------------------|------------------------------|


                                                        
-------0--0--------------|-----3-3-3-3-3-3-3--3--3-----|
--1----1--1--1--1--1--0--|--3--3-3-3-3-3-3-3--3--3--0--|
--0----0--0--2--2--2--0--|--4--4-4-4-4-4-4-4--4--4--0--|
--2----2--2--3--3--3--0--|--5--5-5-5-5-5-5-5--5--5--0--|
--3----3--3--3--3--3--0--|--5-----------------------0--|
-------------------------|-----------------------------|


                                                        
-------0--0--------------|-----3-3-3-3-3-3-3--3--3-----|
--1----1--1--1--1--1--0--|--3--3-3-3-3-3-3-3--3--3--0--|
--0----0--0--2--2--2--0--|--4--4-4-4-4-4-4-4--4--4--0--|
--2----2--2--3--3--3--0--|--5--5-5-5-5-5-5-5--5--5--0--|
--3----3--3--3--3--3--0--|--5-----------------------0--|
-------------------------|-----------------------------|


                                                        
-------0--0--------------|-----3-3-3-3-3-3-3--3--3-----|
--1----1--1--1--1--1--0--|--3--3-3-3-3-3-3-3--3--3--0--|
--0----0--0--2--2--2--0--|--4--4-4-4-4-4-4-4--4--4--0--|
--2----2--2--3--3--3--0--|--5--5-5-5-5-5-5-5--5--5--0--|
--3----3--3--3--3--3--0--|--5-----------------------0--|
-------------------------|-----------------------------|


                                                        
-------0--0--------------|-----3-3-3-3-3-3-3--3--3-----|
--1----1--1--1--1--1--0--|--3--3-3-3-3-3-3-3--3--3--0--|
--0----0--0--2--2--2--0--|--4--4-4-4-4-4-4-4--4--4--0--|
--2----2--2--3--3--3--0--|--5--5-5-5-5-5-5-5--5--5--0--|
--3----3--3--3--3--3--0--|--5-----------------------0--|
-------------------------|-----------------------------|


                                                                                
-------0--0--------------|-----3-3-3-3-3-3-3--3--3-----|-----------------------|
--1----1--1--1--1--1--0--|--3--3-3-3-3-3-3-3--3--3--0--|--1----1-----1----1----|
--0----0--0--2--2--2--0--|--4--4-4-4-4-4-4-4--4--4--0--|--0----0-----2----2----|
--2----2--2--3--3--3--0--|--5--5-5-5-5-5-5-5--5--5--0--|--2----2--0--3----3----|
--3----3--3--3--3--3--0--|--5-----------------------0--|--3----3--0------------|
-------------------------|-----------------------------|-----------------------|


                                                            
-------3--3--3--3-3-3-3-3--|-----3-3-3-3-3-3-3-3-3--3----0-|
--3----3--3--3--3-3-3-3-3--|--3--3-3-3-3-3-3-3-3-3--3--0---|
--4----4--4--4--4-4-4-4-4--|--4--4-4-4-4-4-4-4-4-4--4--0---|
--5----5--5--5--5-5-5-5-5--|--5--5-5-5-5-5-5-5-5-5--5------|
---------------------------|-------------------------------|
---------------------------|-------------------------------|


                                                                                
----------------1-1--1-1-1-|--0--0-0-0-----1--1--1-1----|--3------3--3------3--|
--1----1--------3-3--3-3-3-|--0--0-0-0-----1--1--1-1----|--3------3--3------3--|
--0-------0--2--2-2--2-2-2-|--0--0-0-0-----2--2--2-2----|--4------4--4------4--|
--2----------0---------0---|--2------------3--3--3-3----|--5------5--5------5--|
--3----------0-------------|--2---------0--3--3--3-3-0--|----------------------|
---------------------------|----------------------------|----------------------|


                                                       
--3-----3-3--3-3-3-3-3------|-------------1--1--1-----|
--3-----3-3--3-3-3-3-3--0h1-|--1----1-----3--3--3-----|
--4-------4--4-4-4-4-4--x---|--0----0--0--2--2--2-----|
--5-------5--5-5-5-5-5--3---|--2----2-----0--------0--|
----------------------------|--3----3-----0--------0--|
----------------------------|-------------------------|


                                                   
--0--0-0-0-----1---------|--3-----3-3-3-3------3--|
--0--0-0-0-----1---------|--3-----3-3-3-3------3--|
--0--0-0-0-----2------0--|--4-----4-4-4-4------4--|
--2---------0--3------0--|--5-------5---5------5--|
--2---------0--3------0--|------------------------|
-------------------------|------------------------|


                                                                           
--3--3-3-3-3-3-3-3--3-3------|--1-------------------|--3-------------3-2--|
--3--3-3-3-3-3-3-3--3-3---0--|--1------1--1---------|--3-------------3-2--|
--4--4-4-4-4-4-4-4--4-4---0--|--2------2--2----2----|--4-------------4-3--|
--5--5-5-5-5-5-5-5--5-----0--|--3------3--3----3----|--5-------------5-4--|
--------------------------0--|-----------------3----|---------------------|
-----------------------------|----------------------|---------------------|


                                                                          
--1--1-1-1--1--1----1----|--3--3--3--3--3---------|----------------------|
--1--1-1-1--1--1----1----|--3--3--3--3--3------0--|--1---------0---------|
--2--2-2-2--2--2----2----|--4--4--4--4--4------0--|--2---------0---------|
--3--3-3-3--3--3----3----|--5--5--5--5--5------0--|--3---------2------0--|
--3--3-3-3--3--3----3----|---------------------0--|--3------2--2------0--|
-------------------------|------------------------|----------------------|


                                                                            
--1--------------------|--------------------------|------------------------|
--3---------1----1-----|--1-----------0--0--0-----|--3----------1----1-----|
--2---------0----0-----|--2-----------0--0--0--0--|--2----------0----0--0--|
--0------0--2----2-----|--3--3--------2--2--2--0--|--0----0--0--2----2--0--|
--0------0--3----3--0--|--3-----3--0--2--2--2-----|----------0--3----3--0--|
-----------------------|--------------------------|------------------------|


                                                          
-----1-1-1--1--1--1--1-1-1--|----------------------------|
-----3-3-3--3--3--3--3-3-3--|--1--1-1-1-1-1--1--1--1--1--|
-----2-2-2--2--2--2--2-2-2--|--2--2-2-2-2-2--2--2--2--2--|
--0-------------------------|--3--3-3-3-3-3--3--3--3--3--|
--0-------------------------|--3--3-3-3-3-3--3--3--3--3--|
----------------------------|----------------------------|


                                                            
-------3--3-3-3--3-3-3--3-3-|--3-3-3-3-3-3-3-3-3--0-0------|
--3----3--3-3-3--3-3-3--3-3-|--3-3-3-3-3-3-3-3-3--0-0-0----|
--4----4--4-4-4--4-4-4--4-4-|--4-4-4-4-4-4-4-4-4------0----|
--5----5----5-5--5---5--5---|--5---5---5---5---5------0----|
----------------------------|------------------------------|
----------------------------|------------------------------|


                                                        
-------0--0--------------|-----3-3-3-3-3-3-3--3--3-----|
--1----1--1--1--1--1--0--|--3--3-3-3-3-3-3-3--3--3--0--|
--0----0--0--2--2--2--0--|--4--4-4-4-4-4-4-4--4--4--0--|
--2----2--2--3--3--3--0--|--5--5-5-5-5-5-5-5--5--5--0--|
--3----3--3--3--3--3--0--|--5-----------------------0--|
-------------------------|-----------------------------|


                                                        
-------0--0--------------|-----3-3-3-3-3-3-3--3--3-----|
--1----1--1--1--1--1--0--|--3--3-3-3-3-3-3-3--3--3--0--|
--0----0--0--2--2--2--0--|--4--4-4-4-4-4-4-4--4--4--0--|
--2----2--2--3--3--3--0--|--5--5-5-5-5-5-5-5--5--5--0--|
--3----3--3--3--3--3--0--|--5-----------------------0--|
-------------------------|-----------------------------|


                                                        
-------0--0--------------|-----3-3-3-3-3-3-3--3--3-----|
--1----1--1--1--1--1--0--|--3--3-3-3-3-3-3-3--3--3--0--|
--0----0--0--2--2--2--0--|--4--4-4-4-4-4-4-4--4--4--0--|
--2----2--2--3--3--3--0--|--5--5-5-5-5-5-5-5--5--5--0--|
--3----3--3--3--3--3--0--|--5-----------------------0--|
-------------------------|-----------------------------|


                                                        
-------0--0--------------|-----3-3-3-3-3-3-3--3--3-----|
--1----1--1--1--1--1--0--|--3--3-3-3-3-3-3-3--3--3--0--|
--0----0--0--2--2--2--0--|--4--4-4-4-4-4-4-4--4--4--0--|
--2----2--2--3--3--3--0--|--5--5-5-5-5-5-5-5--5--5--0--|
--3----3--3--3--3--3--0--|--5-----------------------0--|
-------------------------|-----------------------------|


                                                                                
-------0--0--------------|-----3-3-3-3-3-3-3--3--3-----|-----------------------|
--1----1--1--1--1--1--0--|--3--3-3-3-3-3-3-3--3--3--0--|--1----1-----1----1----|
--0----0--0--2--2--2--0--|--4--4-4-4-4-4-4-4--4--4--0--|--0----0-----2----2----|
--2----2--2--3--3--3--0--|--5--5-5-5-5-5-5-5--5--5--0--|--2----2--0--3----3----|
--3----3--3--3--3--3--0--|--5-----------------------0--|--3----3--0------------|
-------------------------|-----------------------------|-----------------------|


                                                                                
-------3--3--3--3-3-3-3-3--|-----------------------|-------3--3--3--3-3-3-3-3--|
--3----3--3--3--3-3-3-3-3--|--1----1-----1----1----|--3----3--3--3--3-3-3-3-3--|
--4----4--4--4--4-4-4-4-4--|--0----0-----2----2----|--4----4--4--4--4-4-4-4-4--|
--5----5--5--5--5-5-5-5-5--|--2----2--0--3----3----|--5----5--5--5--5-5-5-5-5--|
---------------------------|--3----3--0------------|---------------------------|
---------------------------|-----------------------|---------------------------|


                                                            
-----3-3-3-3-3-3-3-3-3--3----0-|----------------1-1--1-1-1-|
--3--3-3-3-3-3-3-3-3-3--3--0---|--1----1--------3-3--3-3-3-|
--4--4-4-4-4-4-4-4-4-4--4--0---|--0-------0--2--2-2--2-2-2-|
--5--5-5-5-5-5-5-5-5-5--5------|--2----------0---------0---|
-------------------------------|--3----------0-------------|
-------------------------------|---------------------------|


                                                    
--0--0-0-0-----1--1--1-1----|--3------3--3------3--|
--0--0-0-0-----1--1--1-1----|--3------3--3------3--|
--0--0-0-0-----2--2--2-2----|--4------4--4------4--|
--2------------3--3--3-3----|--5------5--5------5--|
--2---------0--3--3--3-3-0--|----------------------|
----------------------------|----------------------|


                                                       
--3-----3-3--3-3-3-3-3------|-------------1--1--1-----|
--3-----3-3--3-3-3-3-3--0h1-|--1----1-----3--3--3-----|
--4-------4--4-4-4-4-4--x---|--0----0--0--2--2--2-----|
--5-------5--5-5-5-5-5--3---|--2----2-----0--------0--|
----------------------------|--3----3-----0--------0--|
----------------------------|-------------------------|


                                                   
--0--0-0-0-----1---------|--3-----3-3-3-3------3--|
--0--0-0-0-----1---------|--3-----3-3-3-3------3--|
--0--0-0-0-----2------0--|--4-----4-4-4-4------4--|
--2---------0--3------0--|--5-------5---5------5--|
--2---------0--3------0--|------------------------|
-------------------------|------------------------|


                                                                           
--3--3-3-3-3-3-3-3--3-3------|--1-------------------|--3-------------3-2--|
--3--3-3-3-3-3-3-3--3-3---0--|--1------1--1---------|--3-------------3-2--|
--4--4-4-4-4-4-4-4--4-4---0--|--2------2--2----2----|--4-------------4-3--|
--5--5-5-5-5-5-5-5--5-----0--|--3------3--3----3----|--5-------------5-4--|
--------------------------0--|-----------------3----|---------------------|
-----------------------------|----------------------|---------------------|


                                                                          
--1--1-1-1--1--1----1----|--3--3--3--3--3---------|----------------------|
--1--1-1-1--1--1----1----|--3--3--3--3--3------0--|--1---------0---------|
--2--2-2-2--2--2----2----|--4--4--4--4--4------0--|--2---------0---------|
--3--3-3-3--3--3----3----|--5--5--5--5--5------0--|--3---------2------0--|
--3--3-3-3--3--3----3----|---------------------0--|--3------2--2------0--|
-------------------------|------------------------|----------------------|


                                                                            
--1--------------------|--------------------------|------------------------|
--3---------1----1-----|--1-----------0--0--0-----|--3----------1----1-----|
--2---------0----0-----|--2-----------0--0--0--0--|--2----------0----0--0--|
--0------0--2----2-----|--3--3--------2--2--2--0--|--0----0--0--2----2--0--|
--0------0--3----3--0--|--3-----3--0--2--2--2-----|----------0--3----3--0--|
-----------------------|--------------------------|------------------------|


                                                          
-----1-1-1--1--1--1--1-1-1--|----------------------------|
-----3-3-3--3--3--3--3-3-3--|--1--1-1-1-1-1--1--1--1--1--|
-----2-2-2--2--2--2--2-2-2--|--2--2-2-2-2-2--2--2--2--2--|
--0-------------------------|--3--3-3-3-3-3--3--3--3--3--|
--0-------------------------|--3--3-3-3-3-3--3--3--3--3--|
----------------------------|----------------------------|


                                                            
-------3--3-3-3--3-3-3--3-3-|--3-3-3-3-3-3-3-3-3--0-0------|
--3----3--3-3-3--3-3-3--3-3-|--3-3-3-3-3-3-3-3-3--0-0-0----|
--4----4--4-4-4--4-4-4--4-4-|--4-4-4-4-4-4-4-4-4------0----|
--5----5----5-5--5---5--5---|--5---5---5---5---5------0----|
----------------------------|------------------------------|
----------------------------|------------------------------|


                                                        
-------0--0--------------|-----3-3-3-3-3-3-3--3--3-----|
--1----1--1--1--1--1--0--|--3--3-3-3-3-3-3-3--3--3--0--|
--0----0--0--2--2--2--0--|--4--4-4-4-4-4-4-4--4--4--0--|
--2----2--2--3--3--3--0--|--5--5-5-5-5-5-5-5--5--5--0--|
--3----3--3--3--3--3--0--|--5-----------------------0--|
-------------------------|-----------------------------|


                                                        
-------0--0--------------|-----3-3-3-3-3-3-3--3--3-----|
--1----1--1--1--1--1--0--|--3--3-3-3-3-3-3-3--3--3--0--|
--0----0--0--2--2--2--0--|--4--4-4-4-4-4-4-4--4--4--0--|
--2----2--2--3--3--3--0--|--5--5-5-5-5-5-5-5--5--5--0--|
--3----3--3--3--3--3--0--|--5-----------------------0--|
-------------------------|-----------------------------|


                                                        
-------0--0--------------|-----3-3-3-3-3-3-3--3--3-----|
--1----1--1--1--1--1--0--|--3--3-3-3-3-3-3-3--3--3--0--|
--0----0--0--2--2--2--0--|--4--4-4-4-4-4-4-4--4--4--0--|
--2----2--2--3--3--3--0--|--5--5-5-5-5-5-5-5--5--5--0--|
--3----3--3--3--3--3--0--|--5-----------------------0--|
-------------------------|-----------------------------|


                                                        
-------0--0--------------|-----3-3-3-3-3-3-3--3--3-----|
--1----1--1--1--1--1--0--|--3--3-3-3-3-3-3-3--3--3--0--|
--0----0--0--2--2--2--0--|--4--4-4-4-4-4-4-4--4--4--0--|
--2----2--2--3--3--3--0--|--5--5-5-5-5-5-5-5--5--5--0--|
--3----3--3--3--3--3--0--|--5-----------------------0--|
-------------------------|-----------------------------|


                                                                                
-------0--0--------------|-----3-3-3-3-3-3-3--3--3-----|-----------------------|
--1----1--1--1--1--1--0--|--3--3-3-3-3-3-3-3--3--3--0--|--1----1-----1----1----|
--0----0--0--2--2--2--0--|--4--4-4-4-4-4-4-4--4--4--0--|--0----0-----2----2----|
--2----2--2--3--3--3--0--|--5--5-5-5-5-5-5-5--5--5--0--|--2----2--0--3----3----|
--3----3--3--3--3--3--0--|--5-----------------------0--|--3----3--0------------|
-------------------------|-----------------------------|-----------------------|


                                                                                
-------3--3--3--3-3-3-3-3--|-----------------------|-------3--3--3--3-3-3-3-3--|
--3----3--3--3--3-3-3-3-3--|--1----1-----1----1----|--3----3--3--3--3-3-3-3-3--|
--4----4--4--4--4-4-4-4-4--|--0----0-----2----2----|--4----4--4--4--4-4-4-4-4--|
--5----5--5--5--5-5-5-5-5--|--2----2--0--3----3----|--5----5--5--5--5-5-5-5-5--|
---------------------------|--3----3--0------------|---------------------------|
---------------------------|-----------------------|---------------------------|


                                                            
-----3-3-3-3-3-3-3-3-3--3----0-|----------------1-1--1-1-1-|
--3--3-3-3-3-3-3-3-3-3--3--0---|--1----1--------3-3--3-3-3-|
--4--4-4-4-4-4-4-4-4-4--4--0---|--0-------0--2--2-2--2-2-2-|
--5--5-5-5-5-5-5-5-5-5--5------|--2----------0---------0---|
-------------------------------|--3----------0-------------|
-------------------------------|---------------------------|


                                                    
--0--0-0-0-----1--1--1-1----|--3------3--3------3--|
--0--0-0-0-----1--1--1-1----|--3------3--3------3--|
--0--0-0-0-----2--2--2-2----|--4------4--4------4--|
--2------------3--3--3-3----|--5------5--5------5--|
--2---------0--3--3--3-3-0--|----------------------|
----------------------------|----------------------|


                                                       
--3-----3-3--3-3-3-3-3------|-------------1--1--1-----|
--3-----3-3--3-3-3-3-3--0h1-|--1----1-----3--3--3-----|
--4-------4--4-4-4-4-4--x---|--0----0--0--2--2--2-----|
--5-------5--5-5-5-5-5--3---|--2----2-----0--------0--|
----------------------------|--3----3-----0--------0--|
----------------------------|-------------------------|


                                                   
--0--0-0-0-----1---------|--3-----3-3-3-3------3--|
--0--0-0-0-----1---------|--3-----3-3-3-3------3--|
--0--0-0-0-----2------0--|--4-----4-4-4-4------4--|
--2---------0--3------0--|--5-------5---5------5--|
--2---------0--3------0--|------------------------|
-------------------------|------------------------|


                                                                           
--3--3-3-3-3-3-3-3--3-3------|--1-------------------|--3-------------3-2--|
--3--3-3-3-3-3-3-3--3-3---0--|--1------1--1---------|--3-------------3-2--|
--4--4-4-4-4-4-4-4--4-4---0--|--2------2--2----2----|--4-------------4-3--|
--5--5-5-5-5-5-5-5--5-----0--|--3------3--3----3----|--5-------------5-4--|
--------------------------0--|-----------------3----|---------------------|
-----------------------------|----------------------|---------------------|


                                                                          
--1--1-1-1--1--1----1----|--3--3--3--3--3---------|----------------------|
--1--1-1-1--1--1----1----|--3--3--3--3--3------0--|--1---------0---------|
--2--2-2-2--2--2----2----|--4--4--4--4--4------0--|--2---------0---------|
--3--3-3-3--3--3----3----|--5--5--5--5--5------0--|--3---------2------0--|
--3--3-3-3--3--3----3----|---------------------0--|--3------2--2------0--|
-------------------------|------------------------|----------------------|


                                                                            
--1--------------------|--------------------------|------------------------|
--3---------1----1-----|--1-----------0--0--0-----|--3----------1----1-----|
--2---------0----0-----|--2-----------0--0--0--0--|--2----------0----0--0--|
--0------0--2----2-----|--3--3--------2--2--2--0--|--0----0--0--2----2--0--|
--0------0--3----3--0--|--3-----3--0--2--2--2-----|----------0--3----3--0--|
-----------------------|--------------------------|------------------------|


                                                          
-----1-1-1--1--1--1--1-1-1--|----------------------------|
-----3-3-3--3--3--3--3-3-3--|--1--1-1-1-1-1--1--1--1--1--|
-----2-2-2--2--2--2--2-2-2--|--2--2-2-2-2-2--2--2--2--2--|
--0-------------------------|--3--3-3-3-3-3--3--3--3--3--|
--0-------------------------|--3--3-3-3-3-3--3--3--3--3--|
----------------------------|----------------------------|


                                                            
-------3--3-3-3--3-3-3--3-3-|--3-3-3-3-3-3-3-3-3--0-0------|
--3----3--3-3-3--3-3-3--3-3-|--3-3-3-3-3-3-3-3-3--0-0-0----|
--4----4--4-4-4--4-4-4--4-4-|--4-4-4-4-4-4-4-4-4------0----|
--5----5----5-5--5---5--5---|--5---5---5---5---5------0----|
----------------------------|------------------------------|
----------------------------|------------------------------|


                                                        
-------0--0--------------|-----3-3-3-3-3-3-3--3--3-----|
--1----1--1--1--1--1--0--|--3--3-3-3-3-3-3-3--3--3--0--|
--0----0--0--2--2--2--0--|--4--4-4-4-4-4-4-4--4--4--0--|
--2----2--2--3--3--3--0--|--5--5-5-5-5-5-5-5--5--5--0--|
--3----3--3--3--3--3--0--|--5-----------------------0--|
-------------------------|-----------------------------|


                                                        
-------0--0--------------|-----3-3-3-3-3-3-3--3--3-----|
--1----1--1--1--1--1--0--|--3--3-3-3-3-3-3-3--3--3--0--|
--0----0--0--2--2--2--0--|--4--4-4-4-4-4-4-4--4--4--0--|
--2----2--2--3--3--3--0--|--5--5-5-5-5-5-5-5--5--5--0--|
--3----3--3--3--3--3--0--|--5-----------------------0--|
-------------------------|-----------------------------|


                                                        
-------0--0--------------|-----3-3-3-3-3-3-3--3--3-----|
--1----1--1--1--1--1--0--|--3--3-3-3-3-3-3-3--3--3--0--|
--0----0--0--2--2--2--0--|--4--4-4-4-4-4-4-4--4--4--0--|
--2----2--2--3--3--3--0--|--5--5-5-5-5-5-5-5--5--5--0--|
--3----3--3--3--3--3--0--|--5-----------------------0--|
-------------------------|-----------------------------|


                                                        
-------0--0--------------|-----3-3-3-3-3-3-3--3--3-----|
--1----1--1--1--1--1--0--|--3--3-3-3-3-3-3-3--3--3--0--|
--0----0--0--2--2--2--0--|--4--4-4-4-4-4-4-4--4--4--0--|
--2----2--2--3--3--3--0--|--5--5-5-5-5-5-5-5--5--5--0--|
--3----3--3--3--3--3--0--|--5-----------------------0--|
-------------------------|-----------------------------|


                                                                                
-------0--0--------------|-----3-3-3-3-3-3-3--3--3-----|-----------------------|
--1----1--1--1--1--1--0--|--3--3-3-3-3-3-3-3--3--3--0--|--1----1-----1----1----|
--0----0--0--2--2--2--0--|--4--4-4-4-4-4-4-4--4--4--0--|--0----0-----2----2----|
--2----2--2--3--3--3--0--|--5--5-5-5-5-5-5-5--5--5--0--|--2----2--0--3----3----|
--3----3--3--3--3--3--0--|--5-----------------------0--|--3----3--0------------|
-------------------------|-----------------------------|-----------------------|


                                                        
-------3--3--3--3-3-3-3-3--||--------0--0--------------|
--3----3--3--3--3-3-3-3-3--||---1----1--1--1--1--1--0--|
--4----4--4--4--4-4-4-4-4--||*--0----0--0--2--2--2--0--|
--5----5--5--5--5-5-5-5-5--||*--2----2--2--3--3--3--0--|
---------------------------||---3----3--3--3--3--3--0--|
---------------------------||--------------------------|


                                                          
-----3-3-3-3-3-3-3--3--3------||-------0--0--------------|
--3--3-3-3-3-3-3-3--3--3--0---||--1----1--1--1--1--1--0--|
--4--4-4-4-4-4-4-4--4--4--0--*||--0----0--0--2--2--2--0--|
--5--5-5-5-5-5-5-5--5--5--0--*||--2----2--2--3--3--3--0--|
--5-----------------------0---||--3----3--3--3--3--3--0--|
------------------------------||-------------------------|


                               
-----3-3-3-3-3-3-3--3--3-----||
--3--3-3-3-3-3-3-3--3--3--0--||
--4--4-4-4-4-4-4-4--4--4--0--||
--5--5-5-5-5-5-5-5--5--5--0--||
--5-----------------------0--||
-----------------------------||





Comments


Popular Bob Dylan tabs & chords
Girl From The North Country 1 Chords
Maggies Farm 3 Chords
Spanish Harlem Incident Chords
The Times They Are A Changin Chords
Wagon Wheel Chords
Don Think Twice Tabs
Fourth Time Around Tabs
Railroad Bill Tabs
Wedding Song Tabs
Alberta Ukulele


Song lyrics



↑ Back to top | Tablatures and chords are parodies/interpretations of the original songs. You may use it for private study, scholarship, research or language learning purposes only
© 2014 AZChords.com Contact us | Privacy policy | DMCA | Add/correct tabs | Request tabs | Top 50 tabs